Song name
# A B C D E F G H I J K L M N O P Q R S T U V W X Y Z

Keller Williams - Best Feeling tab

Help us improve GuitareTab! Take a short survey!
Keller williams!!!



Tuning: EADGBe

|----------------|----------------------------|
|11---14---13----|--11/13---14---13---11------|
|----------------|----------------------------| X3
|----------------|----------------------------|
|----------------|----------------------------|
|----------------|----------------------------|

   Bbm      C#       Ab             C#      Ab       Bbm
|---6-------4----|---4----------|---4-------4----|----6------|
|---6-------6----|---4----------|---6-------4----|----6------|
|---6-------6----|---5----------|---6-------5----|----6------|
|---8-------6----|---6----------|---6-------6----|----8------|
|---8-------4----|---6----------|---4-------6----|----8------|
|---6------------|---4----------|-----------4----|----6------|


|----------------|--------------|
|----------------|--------------|
|3---6---5-------|-3/5---6-5---3|
|----------------|--------------|
|----------------|--------------|
|----------------|--------------|


Chorus & Jam Part

|-------------|--------------|
|-------------|--------------|
|3---5---6----|-3----5---3---|
|-------------|--------------|
|-------------|--------------|
|-------------|--------------|


Dove threw the wave and i felt like a fish, it was the best feeling of my world...


|---10---9---|------------|
|------------|---11---9---|
|------------|------------|
|------------|------------|
|------------|------------|
|------------|------------|





If you can add anything to it like the solo hit it UP!!!


x0lovelysurfer0x




jam on music lovers, jam on...
Related for Best Feeling tab