Song name
# A B C D E F G H I J K L M N O P Q R S T U V W X Y Z

Keller Williams - Brunette tab

Artist - Keller Williams
Song - Brunette

E-------------------------------------------------|
B-------------------------4--6--------------------|
G---1--1------------------4--6----9--11-----------|
D---2--2------------------4--6----9--11-----------|
A---2--2--------------------------9--11-----------|
E---0--0--0--0----2--2----------------------------|

E-------------------------------------------------|
B-------------------------4--6--------------------|
G---1--1------------------4--6----9--11-----------|
D---2--2------------------4--6----9--11-----------|
A---2--2--------------------------9--11-----------|
E---0--0--0--0----2--2----------------------------|

E---------------------------------------------------|
B-------------------------4--6----------------------|
G---1--1------------------4--6----9--11-------1-----|
D---2--2------------------4--6----9--11-------2-----|
A---2--2--------------------------9--11-------2-----|
E---0--0--0--0----2--2------------------------0-----|
Tap to rate this tab
# A B C D E F G H I J K L M N O P Q R S T U V W X Y Z