Song name
# A B C D E F G H I J K L M N O P Q R S T U V W X Y Z

Keller Williams - Kiwi And The Apricot tab

Artist - Keller Williams
Song - Kiwi And The Apricot

e--------------------------------|------------------------------------|
B--------------------------------|------------------------------------|
G--------6\4---------------------|------------6-4---------------------|
D---4/6--4\2---------4-4/6-------|-----4-4/6--4-2----------4/6--------|
A---2/4-------4-4/6--2-2/4-------|-----2-2/4-------4-4/6---2/4--------|
E-------------2-2/4--------------|-----------------2-2/4--------------|



e--------------------------------|------------------------------------|
B--------------------------------|------------------------------------|
G----------8-6-------------------|-------------8-6-----------6/8\4----|
D---6-6/8--6-4---------6-6/8-----|------6-6/8--6-4-----------4/6\2----|
A---4-4/6-------6-6/8--4-4/6-----|------4-4/6---------6--8------------|
E---------------4-4/6------------|--------------------4--6------------|
Tap to rate this tab
# A B C D E F G H I J K L M N O P Q R S T U V W X Y Z