Song name
# A B C D E F G H I J K L M N O P Q R S T U V W X Y Z

Keller Williams - Turn In Difference tab

Artist - Keller Williams
Song - Turn In Difference

Tuning: e B G D A D

e|--------------|
B|----6------6--|
G|----5------5--|
D|--------------|
A|-------4------|
D|--0---5-5-0---|

e|------------------|
B|------------------|
G|------------------|
D|--5---7---9---10--|
A|--5---7---9---10--|
D|--5---7---9---10--|

e|------------------------------------------------------------|
B|------------------------------6--------6--------------------|
G|----------7--7-6-5------------5--------5--------------------|
D|--3--5--------------3--5------------------------5--7--9-10--|
A|--3--5----5--5-4-3--3--5---------4--------4-----5--7--9-10--|
D|--3--5--------------3--5---0----5-5---0--5-5----5--7--9-10--|
Tap to rate this tab
# A B C D E F G H I J K L M N O P Q R S T U V W X Y Z