Song name
# A B C D E F G H I J K L M N O P Q R S T U V W X Y Z

Keller Williams - Novelty Song tab

Tuning: d g c f a d 

Main Riff:
     E      D     A    E
D|---------------------------------------------------------------------------|
A|---------------------------------------------------------------------------|
F|----------------4----------------------------------------------------------|
C|---4------2-----4----4-----------------------------------------------------|
G|---4------2-----2----4-----------------------------------------------------|
D|---2------0----------2-----------------------------------------------------|

Fill: (once in a while throw in the fill)
D|---------------------------------------------------------------------------|
A|---------------------------------------------------------------------------|
F|---------------------------------------------------------------------------|
C|---------------------------------------------------------------------------|
G|-------4-------5------5---------7------------------------------------------|
D|----2------3------4-------5------------------------------------------------|

Tap to rate this tab
# A B C D E F G H I J K L M N O P Q R S T U V W X Y Z