Song name
# A B C D E F G H I J K L M N O P Q R S T U V W X Y Z

Kellie Pickler - Mothers Day tab

I love this song.  The guitar is very simple too.

Capo 3

e|---------------------------------------------------------------|
B|------1---1-------1---1-------1---1---0h1-3-1------------------|
G|----0---0---0---0---0---0---0---0---0--------------------------|
D|---------------------------------------------------------------|
A|--3-----------2-----------0------------------------------------|
E|---------------------------------------------------------------|

e|---------------------------------------------------------------|
B|------1---1-------1---1-------1---1---3p1-0-1------------------|
G|----0---0---0---0---0---0---0---0---0--------------------------|
D|---------------------------------------------------------------|
A|--3-----------2-----------0------------------------------------|
E|---------------------------------------------------------------|

Repeat for the whole song
Tap to rate this tab
# A B C D E F G H I J K L M N O P Q R S T U V W X Y Z