Song name
# A B C D E F G H I J K L M N O P Q R S T U V W X Y Z

Kelly Chan - A Lovers Concerto tab

http://www.kellychen.hk/staging/index.php

-------------------------------------------------------------------------------
			     A LOVER'S CONCERTO - Kelly Chen
-------------------------------------------------------------------------------
Tabbed by: asd20227
Email: timothy8888 at gmail.com
Tuning: Standard
Key: C major

  C                 Em         F     G7            C  Am
  How gentle is the rain, that falls softly on the meadow.

  Dm7   G7             C      Am           G       C              Dm7   G7
  Birds high up on the trees, serenade the flowers with their melodies. Oh!

  C                    Em        F      G7            C   Am
  See there beyond the hill, the bright colors of The rainbow.

  Dm7  G7          C    Am                Dm7  G7              C
  Some magic from above made this day for us,  just to fall in love.

  C                      Em        F   G7                C    Am
  You'll hold me in your arms, and say once again you'll love me.

  Dm7 G7                C     Am              Dm7 G7            C
  And that your love is true, everything will be  just as wonderful.


(Interlude)

   C                 Em                F                 G
e|-----------------|-0-----1-0-------|-----------------|-----------------|
B|-1---------3-1-3-|-----0-------3---|-1-------------1-|-3-------1---0---|
G|-----0---0-------|---0-------0---0-|-----------2-----|-----0-----------|
D|---2---2---------|-----------------|-----3---3-------|---0---0---0---0-|
A|-3---------------|-----------------|---3---3---------|-----------------|
E|-----------------|-0---------------|-1---------------|-3---------------|


  C                Em        F    G7           C Am
  Now, I belong to you, from this day until forever.

  Dm7  G7            C  Am               G   C             Dm7 G7
  Just love me tenderly and I'll give to you every part of me. Oh!

  C                  Em           F    G7                C   Am
  Don't ever make me cry, through long lonely nights without love.

  Dm7 G7             C   Am               Dm7  G7           C
  Be  always true to me, keep this day in your heart eternally.

  C                      Em        F   G7                C    Am
  You'll hold me in your arms, and say once again you'll love me.

  Dm7 G7                C     Am                    Dm7 G7            C   G7
  And that your love is true, everything will be  just as wonderful.

(Outro)

   C                 Em                F                 G
e|-----------------|-0-----1-0-------|-----------------|-----------------|
B|-1---------3-1-3-|-----0-------3---|-1-------------1-|-3-------1---0---|
G|-----0---0-------|---0-------0---0-|-----------2-----|-----0-----------|
D|---2---2---------|-----------------|-----3---3-------|---0---0---0---0-|
A|-3---------------|-----------------|---3---3---------|-----------------|
E|-----------------|-0---------------|-1---------------|-3---------------|

   C                 Em                F                 G                 C
e|-----------------|-0-----1-0-------|-----------------|-------0-1--0----|-0-|
B|-1---------3-1-3-|-----0-------3---|-1-------------1-|-3-------------3-|-1-|
G|-----0---0-------|---0-------0---0-|-----------2-----|-----0-----------|-0-|
D|---2---2---------|-----------------|-----3---3-------|---0-------------|-2-|
A|-3---------------|-----------------|---3---3---------|-----------------|-3-|
E|-----------------|-0---------------|-1---------------|-3---------------|---|
Tap to rate this tab
 
# A B C D E F G H I J K L M N O P Q R S T U V W X Y Z