Song name
# A B C D E F G H I J K L M N O P Q R S T U V W X Y Z

Kelly Clarkson - Walk Away tab

e------------------------------------------|
A------------------------------------------|
D------------------------------------------|
G------------------------------------------|
B-5-5--8-8--10-10--1010-10-----------------|
E-3-3--6-6--8 -8 --8 8 -8------------------|      3x

e------------------------------------------|
A------------------------------------------|
D------------------------------------------|
G------------------------------------------|
B-5-5--88-8--10-10--1010-10----------------|
E-3-3--66-6--8 -8 --8 8 -8-----------------|      2x

Chorus: 
G G FF F C C CC C   3x

e------------------------------------------|
A------------------------------------------|
D------------------------------------------|
G------------------------------------------|
B-5-5--8-8--10-10--1010-10-----------------|
E-3-3--6-6--8 -8 --8 8 -8------------------|      2x

e------------------------------------------|
A------------------------------------------|
D------------------------------------------|
G------------------------------------------|
B-5-5--88-8--10-10--1010-10----------------|
E-3-3--66-6--8 -8 --8 8 -8-----------------|      2x

Chorus: 
G G FF F C C CC C   3x

Bridge: 
actually they don't play a thing but i do it like this:

e------------------------------------------|
A------------------------------------------|
D------------------------------------------|
G------------------8-8---------------------|
B-5-5--8-8--10-10--6-6---------------------|
E-3-3--6-6--8 -8 --------------------------|      2x

Chorus: 
G G FF F C C CC C   4x

End:
e------------------------------------------|
A------------------------------------------|
D------------------------------------------|
G------------------------------------------|
B-5-5--8-8--10-10--1010-10--5~~------------|
E-3-3--6-6--8 -8 --8 8 -8---3~~------------|
Tap to rate this tab
 
# A B C D E F G H I J K L M N O P Q R S T U V W X Y Z