Song name
# A B C D E F G H I J K L M N O P Q R S T U V W X Y Z

Kelly Clarkson - Never Again tab

Intro:

e|-------3-----3----------3------3-------|
B|----6-----6------6----6------6------6--|
G|--0-----0------0----0------0------0----|
D|---------------------------------------|
A|---------------------------------------|
E|---------------------------------------|

e|--------------------|
B|--------------------|
G|----7--5------------|
D|----7--5----5-------|
A|----5--3----5-------|
E|------------3-------|


Verse 1:

e|------------------------------------------|
B|------------------------------------------|
G|------------------------------------------|
D|------------------------------------------|
A|-----------5-x-5--3-x-3-------------------|
E|---3(x8)-----------------3-3---3-3--------|



e|--------------------------------------------|
B|--------------------------------------------|
G|--------------------------------------------|
D|--7------5----5---7------5------------------|
A|--5--8-5-3-5--5---5--8-5-3--5--6(x8)--------|
E|--------------3-----------------------------|


Chorus: 

e|------------------------------------------------|
B|------------------------------------------------|
G|------------------------------------------------|
D|--5-5-5--3--5--8--10--12---5-5-5--3--5--8-------|
A|--5-5-5--3--5--8--10--12---5-5-5--3--5--8-------|
E|--3-3-3--1--3--6--8---10---3-3-3--1--3--6-------|



e|------------------------------------------------------|
B|------------------------------------------------------|
G|------------------------------------------------------|
D|--5-5-5--3--5--8--10--12-------------------5----------|
A|--5-5-5--3--5--8--10--12-------------------5----------|
E|--3-3-3--1--3--6--8---10---11(x16)--11-13--3----------|


Verse 2:

e|---------------------------------------------------------------------------|
B|---------------------------------------------------------------------------|
G|---------------------------------------------------------------------------|
D|---------------------------------------------------------------------------|
A|--------------------------------------------5-5-8-3-3-3-5------------------|
E|---3(x5)---3-3-1-1-3-3-1-1-3-3-1-1-3-3-1-1----------------3-3-1-3-1--------|


e|---------------------------------------------------------------------------|
B|---------------------------------------------------------------------------|
G|---------------------------------------------------------------------------|
D|--7-7-----5-5-5--------------------------7-7------5-5-5--------------------|
A|--5-5-8-5-3-3-3-5-5--5--5-3-3-5-5--------5-5--8-5-3-3-3-5--6(x8)-----------|
E|------------------3--3--3-1-1-3-3------------------------------------------|


Bridge(2:36):

e|-------------------------------------------------------|
B|-------------------------------------------------------|
G|-------------7------7------7---------------------------|
D|-------------5------5------5---------------------------|
A|----8-7-6----5(x8)--7(x8)--8(x8)---10-10-8-10-8-8------|
E|-------------------------------------------------------|


e|------------------------------------------------|
B|------------------------------------------------|
G|-------------7------7------7--------------------|
D|-------------5------5------5--------------------|
A|-------------5(x8)--7(x8)--8(x8)---10(x8)-------|
E|------------------------------------------------|


Ending(after chorus) :

e|-------------------------------|
B|-------------------------------|
G|-------------------------------|
D|--5-5-5----3---8--5------------|
A|--5-5-5----3---8--5------------|
E|--3-3-3----1---6--3------------|



Tap to rate this tab
# A B C D E F G H I J K L M N O P Q R S T U V W X Y Z