Song name
# A B C D E F G H I J K L M N O P Q R S T U V W X Y Z

Kelly Clarkson - Fading tab

Kelly Clarkson
Fading
My December - Japan Bonus
Submitted by: kaluss@onet.eu

Video how I play this:
http://pl.youtube.com/watch?v=CKVNDvifzSE

Tuning: Standard EADGBe


Intro: 

e -------------------------------|
B -------------------------------|
G -11-11-11-11/12---5-5-5-5-5-5--|    x2
D --x--x--x--x--x---x-x-x-x-x-x--|
A --9--9--9--9/10---3-3-3-3-3-3--|
E -------------------------------|




Verse: (Running around...)

e -------------------------------|
B -------------------------------|
G -11-11-11-11/12---5-5-5-5-5-5--|    x3
D --x--x--x--x--x---x-x-x-x-x-x--|
A --9--9--9--9/10---3-3-3-3-3-3--|
E -------------------------------|



(Amongst these faceless others..)

e -------------------------------|
B -------------------------------|
G -11-11-11-11/12---5-5-5-5-5-5--|    x3
D -11-11-11-11/12---5-5-5-5-5-5--|
A --9--9--9--9/10---3-3-3-3-3-3--|
E -------------------------------|


(It's all a lie...)

e ----------------|
B ----------------|
G -8-8-8-9-9-9-9--|
D -8-8-8-9-9-9-9--|
A -6-6-6-7-7-7-7--|
E ----------------|



Chorus: (Run away...)


e ------------------------------------------------------|
B ------------------------------------------------------|
G -6-6-6-6-6-6-6-6-7-7-7-7-7-7-7-7-7-7-7-7-7-7-7-7-7-7--|
D -6-6-6-6-6-6-6-6-7-7-7-7-7-7-7-7-7-7-7-7-7-7-7-7-7-7--|    x2
A -4-4-4-4-4-4-4-4-5-5-5-5-5-5-5-5-5-5-5-5-5-5-5-5-5-5--|
E ------------------------------------------------------|


End of chorus:

e --------------------------|
B --------------------------|
G -11-11-11-11-11-11-11-11--|
D --x--x--x--x--x--x--x--x--|
A --9--9--9--9--9--9--9--9--|
E --------------------------|


Verse 2: (Don't move...)


The same like #1 verse



Chorus: (Run away...)

e ------------------------------------------------------|
B ------------------------------------------------------|
G -6-6-6-6-6-6-6-6-7-7-7-7-7-7-7-7-7-7-7-7-7-7-7-7-7-7--|
D -6-6-6-6-6-6-6-6-7-7-7-7-7-7-7-7-7-7-7-7-7-7-7-7-7-7--|    x2
A -4-4-4-4-4-4-4-4-5-5-5-5-5-5-5-5-5-5-5-5-5-5-5-5-5-5--|
E ------------------------------------------------------|



Bridge: (Fading fading fading...)

e -------------------------------|
B -------------------------------|
G -11-11-11-11/12---5-5-5-5-5-5--|    x5
D --x--x--x--x--x---x-x-x-x-x-x--|
A --9--9--9--9/10---3-3-3-3-3-3--|
E -------------------------------|


Chorus x2


Outro:

e -------------------------------|
B -------------------------------|
G -11-11-11-11/12---5-5-5-5-5-5--|    x3
D --x--x--x--x--x---x-x-x-x-x-x--|
A --9--9--9--9/10---3-3-3-3-3-3--|
E -------------------------------|


Please rate and comment :D:D:D
Tap to rate this tab
 
# A B C D E F G H I J K L M N O P Q R S T U V W X Y Z