Song name
# A B C D E F G H I J K L M N O P Q R S T U V W X Y Z

Kelly Clarkson - Thankful tab

-------------------------------------------------------------------------------
			     THANKFUL - Kelly Clarkson
-------------------------------------------------------------------------------

Tuning: Standard



(Intro) 

e|-------------------------------------------------------------------|
B|-------------------------------------------------------------------|
G|---------------3--3------------------------------------------------|
D|----8--7-------3--3-------8--7-----8-------------------------------|
A|----8--7------------------8--7-----8-------------------------------|
E|-8----------3----------8--------x----------------------------------|


| /  slide up
| \  slide down
| h  hammer-on
| p  pull-off
| b  bend
| ~  vibrato
| +  harmonic
| x  Mute note
===============================================================================
Tap to rate this tab
# A B C D E F G H I J K L M N O P Q R S T U V W X Y Z