Guitaretab - guitar tabs
Song name
# A B C D E F G H I J K L M N O P Q R S T U V W X Y Z

Kelly Clarkson - Long Shot tab

-- Kelly Clarkson  Long shot --

standard tuning EADGBE

tabbed by x-tasha-x

Intro: 0:08
E||------------------------------------|  
B||------------------------------------|
G||--77------------------1010-10-99----|
D||--77----55----1010----1010-10-99----| x2
A||--55----55----1010----8-8--8--77----|  
E||--------33----8 8-------------------|  

Verse: 0:24
E||---------------------------------------------|  
B||---------------------------------------------|
G||--77-7-77----------------------1010-10-99----|
D||--77-7-77-55-5-55-1010-10-1010-1010-10-99----| x2
A||--55-5-55-55-5-55-1010-10-1010-8-8--8--77----|  
E||----------33-3-33-8 8--8-8 8----------------|  


Pre chorus: 0:40
E||-----------------------------------------------------------------------| 
B||-----------------------------------------------------------------------|  
G||------------------55555555-7777-5555-------------------5555555555555555|
D||88888888-33333333-55555555-7777-5555-88888888-33333333-5555555555555555|  
A||88888888-33333333-33333333-5555-3333-88888888-33333333-3333333333333333|  
E||66666666-11111111--------------------66666666-11111111-----------------|  

[ Tab from: http://www.guitaretab.com/k/kelly-clarkson/179790.html ]
Chorus: 0:56
E||--------------------------------------------------------------------|
B||--------------------------------------------------------------------|
G||-----------55555555-7777777777777777----------55555555-7777-3333----| 
D||--33333333-55555555-7777777777777777-33333333-55555555-7777-3333----|
A||--33333333-33333333-5555555555555555-33333333-33333333-5555-1111----|
E||--11111111---------------------------11111111-----------------------|

E||-------------------------------------------|
B||-------------------------------------------|
G||-----------55555555-777777777777777-33-----| 
D||--33333333-55555555-777777777777777-33-3---|
A||--33333333-33333333-555555555555555-11-3---|
E||--11111111-----------------------------1---|


Verse 2(same as verse 1)  1:23

Pre chorus 1:39

Chorus 1:55

Bridge: 2:20
E||------------------------------------------------------|
B||------------------------------------------------------|
G||-------------10--9----77------------------1010-10-99--| 
D||--5----10----10--9----77----55----1010----1010-10-99--|
A||--5----10----8---7----55----55----1010----8-8--8--77--|
E||--3----8--------------------33----8 8-----------------|


Last chorus: 2:34
E||--------------------------------------------------------------------|
B||--------------------------------------------------------------------|
G||-----------55555555-7777777777777777----------55555555-7777-3333----| x1
D||--3--------55555555-7777777777777777-33333333-55555555-7777-3333----|
A||--3--------33333333-5555555555555555-33333333-33333333-5555-1111----|
E||--1----------------------------------11111111-----------------------|

end with: 2:50
E||-------------------------------|
B||-------------------------------|
G||-----------55555555-7777-3333--| repeat till end of song
D||--33333333-55555555-7777-3333--|
A||--33333333-33333333-5555-1111--|
E||--11111111---------------------|
Related for Long Shot tab