Guitaretab - guitar tabs
Song name
# A B C D E F G H I J K L M N O P Q R S T U V W X Y Z

Kelly Clarkson - Tip Of My Tongue tab

-- Kelly Clarkson  Tip of my tongue --

standard tuning EADGBE

tabbed by x-tasha-x

it's pretty much the same all the way through accept from the bridge =]

     Am       Dm
E||--0--------1--|
B||--1--------3--|
G||--2--------2--|Play the AM and Dm continuously throughout the song except               
D||--2--------0--| from the bridge
A||--0--------x--|
E||--x--------x--|
[ Tab from: http://www.guitaretab.com/k/kelly-clarkson/180493.html ]
this note is palm muted continuously throughout the pre chorus and chorus
E||---------------------------|
B||---------------------------|
G||---------------------------|
D||--5-5-5-5-5-5-5-5-5-5-5-5--| 
A||---------------------------|
E||---------------------------|

Bridge:  
     Em       G        C        D
E||--0--------2--------0--------2-----|
B||--0--------2--------1--------3-----|
G||--0--------0--------0--------2-----|x3
D||--2--------0--------2--------0-----|
A||--2--------2--------3--------x-----|
E||--0--------3--------x--------x-----|

Related for Tip Of My Tongue tab