Song name
# A B C D E F G H I J K L M N O P Q R S T U V W X Y Z

Kelly Clarkson - What Doesnt Kill You tab

What Doesn't Kill You (Stronger) By Kelly Clarkson (Intro) tabbed by Taylor Franzen:
The chords are already posted but I noticed no one has posted the intro and verse.
This is my first tab ever, but I think this is very accurate. Enjoy! :)


e:|------------------------------------------------------------------|
B:|------------------------------------------------------------------|
G:|--5-5-5-5-5-5-5-5-5-5-5-5-5-5-5-5-5-5-5-5-5-5-5-5-5-5-5-5-7-7-7-7-|
D:|--2-2-2-2-2-2-2-2-2-2-2-2-2-2-2-2/7-7-7-7-7-7-7-7-7-7-7-7-7-7-7-7-|
A:|------------------------------------------------------------------|
E:|------------------------------------------------------------------|

e:|---------------------------------------|
B:|-8-8-8-8-8-8-8-8-8-8-8-8-8-8-8-8-12x16-|
G:|-7-7-7-7-7-7-7-7-7-7-7-7-7-7-7-7-12x16-|
D:|---------------------------------------|
A:|---------------------------------------|
E:|---------------------------------------|


In Summary:
e:|-----------------------------|
B:|----------------8x16-12x16---|
G:|--5x16-5x12-7x4-7x16-12x16---|
D:|--2x16-7x12-7x4--------------|
A:|-----------------------------|
E:|-----------------------------|

Repeat this for the intro/verses
Tap to rate this tab
# A B C D E F G H I J K L M N O P Q R S T U V W X Y Z