Guitaretab - guitar tabs
Song name
# A B C D E F G H I J K L M N O P Q R S T U V W X Y Z

Kelly Clarkson - Just Missed The Train tab

Highlighted       Show chord diagrams
I haven't figured out the chorus yet but the verses are all the same strum pattern i'm 
100% sure on the the last two lines of the verses (Em,Cm,D part) as soon as i'm sure i'll 
it to this tab.

Gsus4/E (032033)
G       (320033)
D       (xx0232)
Em      (022000)
Cm      (x35543)

e|-----------3------------------3----------------------------------------------|
B|-----------3------------------3----------------------------------------------|
G|-----------0------------------0----------------------------------------------|
D|-----------2------------------2----------------------------------------------|
A|-----------3------------------3----------------------------------------------|
E|-----------0------------------0----------------------------------------------|

  Roll over baby, the time has come

e|-----------------------3--------3--------------------------------------------|
B|-----------------------3--------3--------------------------------------------|
G|-----------------------0--------0--------------------------------------------|
D|-----------------------0--------0--------------------------------------------|
A|-----------------------2--------2--------------------------------------------|
E|-----------------------3--------3--------------------------------------------|

  To make a little bit more room

e|-----------3----3-3-3-3----------------3----3-3-3-3--------------------------|
B|-----------3----3-3-3-3----------------3----3-3-3-3--------------------------|
G|-----------0----0-0-0-0----------------0----0-0-0-0--------------------------|
D|-----------2----2-2-2-2----------------2----2-2-2-2--------------------------|
A|-----------3----3-3-3-3----------------3----3-3-3-3--------------------------|
E|-----------0----0-0-0-0----------------0----0-0-0-0--------------------------|

  I've hung around you,     it's getting tough    I think I'm gonna break

e|---3----3-3-3-3--------------------------------------------------------------|
B|---3----3-3-3-3--------------------------------------------------------------|
G|---0----0-0-0-0--------------------------------------------------------------|
D|---0----0-0-0-0--------------------------------------------------------------|
A|---2----2-2-2-2--------------------------------------------------------------|
E|---3----3-3-3-3--------------------------------------------------------------|

  down soon


Verse:
[ Tab from: http://www.guitaretab.com/k/kelly-clarkson/45892.html ]
          Gsus4/E                Gsus4/E
Roll over  baby,    the time has come
                           G
to make a little bit more room
          Gsus4/E                  Gsus4/E
I've hung around you, it's getting tough
                              G
I think I'm gonna break down soon
              Em
I remember, crying in the park, it was getting dark
         Cm                       D
Suddenly I looked up you were my sky


Chorus:

        Gsus4/E
So go on and
         G
Sleep darling
 D                             Em             Gsus4/E
Why don't you pretend we were just a dream
           G
It's cool baby
     D             Em
It doesn't matter anyway
Gsus4/E   G
I'm so sorry
    D                    Em
We got to the station a little too late
Gsus4/E
It's such a shame
                   G
We just missed the train


         Gsus4/E             Gsus4/E
Be quiet angel, donít make a sound
                        G
Just save it for a rainy day
             Gsus4/E            Gsus4/E
Oh canít you see me, Iím such a mess
                           G
Just trying hard to find my way
             Em
You remember wasting all the time

We were feeling fine
          Cm
Though we couldnít walk the line
            D
We were all right


Chorus:

        Gsus4/E
So go on and
         G
Sleep darling
 D                             Em             Gsus4/E
Why don't you pretend we were just a dream
           G
It's cool baby
     D             Em
It doesn't matter anyway
Gsus4/E   G
I'm so sorry
    D                    Em
We got to the station a little too late
Gsus4/E
It's such a shame
                   G       Gsus4/E
We just missed the train


Bridge:

Em
Why's that train just pass us by
       Cm                               D
Didnít anyone see we were stuck out of luck

or we woulda made it on time

Gsus4/E  G  D  Em
Yeah
Yeah    Yeah  Yeah


Chorus:

Gsus4/E  G
So Sleep darling
 D                             Em             Gsus4/E
Why don't you pretend we were just a dream
           G
It's cool baby
     D             Em
It doesn't matter anyway
Gsus4/E   G
I'm so sorry
    D                    Em
We got to the station a little too late


Gsus4/E  G
So Sleep darling
 D                             Em             Gsus4/E
Why don't you pretend we were just a dream
           G
It's cool baby
     D             Em
It doesn't matter anyway
Gsus4/E   G
I'm so sorry
    D                    Em
We got to the station a little too late
Gsus4/E
It's such a shame
                   G
We just missed the train
Related for Just Missed The Train tab