Song name
# A B C D E F G H I J K L M N O P Q R S T U V W X Y Z

Kelly Clarkson - Miss Independent tab

Artist: Kelly Clarkson
Song: Miss Independent
Album: Thankful (2003)
Tabber: GP (ironkat@telus.net)

Play During Verse:

Riff 1:
e---------------------------------------14-14-14-14-----------------|
B---------------------------------------14-14-14-14-----------------|
G-------------------------------------------------------------------|
D-------------------------------------------------------------------|
A------------6-7-8-9------------------------------------------------|
E---------7-----------7---------------------------------------------| 

During the second part of the verse, Riff 1 changes to Riff 2:

Riff 2:
e-----------------------------------------------19--19--19---------|
B-----------------------------------------------19--19--19---------|
G------------------------------------------------------------------|
D------------6-7-8-9-----------------------------------------------|
A---------7-----------7--------------------------------------------|
E------------------------------------------------------------------|


Chorus: play 2x
e|--------------------------------------------------------------------|
B|--------------------------------------------------------------------|
G|---------7-7------------------------------7-7-----------------------|
D|--9-9----7-7----2-2----5-5---7-7---9-9----7-7----5-5---6-6---7-7----|
A|--9-9----5-5----2-2----5-5---7-7---9-9----5-5----5-5---6-6---7-7----|
E|--7-7-----------0-0----3-3---5-5---7-7-----------3-3---4-4---5-5----|


Bridge: Play as many times as needed
e|--------------------------------------------------------------------|
B|--------------------------------------------------------------------|
G|--4-----------7-----------4-----------7-----------------------------|
D|--4-----5-----7-----4-----4-----5-----7-----4-----------------------|
A|--2-----5-----5-----4-----2-----5-----5-----4-----------------------|
E|--------3-----------2-----------3-----------2-----------------------|

If you see any problems, wanna make some suggestions, or have any questions/comments,
email them to me at ironkat@telus.net
Tap to rate this tab
# A B C D E F G H I J K L M N O P Q R S T U V W X Y Z