Song name
# A B C D E F G H I J K L M N O P Q R S T U V W X Y Z

Kelly Family - You Belong To Me tab

You Belong To Me

Note: The capo should be on the 1st fret.

Rhy. Fig. 1:
||--------------------------------||
||------3-------5-------7-----8---||
||*--4-----4/6-----6/7-----7-----*||
||*------------------------------*||
||--------------------------------||
||--------------------------------||

Rhy. Fig. 2:
||-------------------------||
||---2-----3-----5-----7---||
||*-----2-----2-----6-----*||
||*-----------------------*||
||-------------------------||
||-------------------------||

Rhy. Fig. 3:
||------0-----|-----0-----|-----0-----|-----0-----0---||
||---3-----3--|--2-----2--|--3-----3--|--3-----2------||
||*-----------|-----------|-----------|--------------*||
||*-----------|-----------|-----------|--------------*||
||------------|-----------|-----------|---------------||
||------------|-----------|-----------|---------------||

||------0-----|-----0-----|-----0-----|-----0-----0--|---\-2---||
||---3-----3--|--2-----2--|--3-----3--|--3-----2-----|---/-3---||
||*-----------|-----------|-----------|--------------|---\-2--*||
||*-----------|-----------|-----------|--------------|--------*||
||------------|-----------|-----------|--------------|---------||
||------------|-----------|-----------|--------------|---------||

Rhy. Fig. 4:
||---------0--------0-----|--------0--------0------||
||------3-----3--3-----3--|-----3-----3--3-----3---||
||*-----------------------|-----------------------*||
||*--0--------------------|-----------------------*||
||------------------------|--2---------------------||
||------------------------|------------------------||

||---------0--------0-----|--------0--------0------||
||------3-----3--3-----3--|-----2-----2--2-----2---||
||*-----------------------|-----------------------*||
||*-----------------------|-----------------------*||
||------------------------|--0---------------------||
||---3--------------------|------------------------||

Rhy. Fig. 5:
||---------5---------||
||---2--3-----2--3---||
||*-----------------*||
||*-----------------*||
||-------------------||
||-------------------||



       D              B-
If you please, if you want
          G            A
Won't you take in your arms
       D                B-
If you care, you really care for me
                G                A
Why haven't you taken me in your arms


Chorus:
D             B- (w/ rhy. fig. 1)
You belong to me
G                             A (w/ rhy. fig. 2)
Don't you know, how rare this is
D             B- (w/ rhy. fig. 1)
You belong to me
G                 A (w/ rhy. fig. 2)
Don't you know oh babe

(w/ rhy. fig. 3)
D                A           B-
Are you saying I made it all up
    G         A      D
I'm losing my self-esteem
D                  A       B-
Am I ever going to see you again
    G         A    D
I'm losing my confidence


(w/ rhy. fig. 4)
               D
You're passing by
               B-
You're leaving me behind
       G                 A (w/ rhy. fig. 2)
All my dreams now up the sky
        D
Why not me
      B-
Is it her cause
            G            A (w/ rhy. fig. 2)
Should have told me long ago


Chorus: (w/ rhy. fig. 4 - 2X)
D             B- (w/ rhy. fig. 1)
You belong to me
G                             A (w/ rhy. fig. 2)
Don't you know, how rare this is
D             B- (w/ rhy. fig. 1)
You belong to me
G                      A (w/ rhy. fig. 2)
Don't you know what it is

(w/ rhy. fig. 3)
D                          A          B-
Don't you know that you're tearing my soul
G              A       D
How far do you want to go
                    A           B-
But I'll get up and walk on and on
      G         A     B-
I'm a different woman now


Solo:  B-  G  B-  G  A

||---------------|--------------|---------------------||
||---3--2--------|--3--2--------|--3--2--------3--5---||
||*--------4-----|--------4-----|--------4-----------*||
||*-----------4--|-----------5--|-----------4--------*||
||---------------|--------------|---------------------||
||---------------|--------------|---------------------||


Chorus: (w/ rhy. fig. 4 - 2X)
You belong to me (w/ rhy. fig. 5)
Don't you know, how rare this is (w/ rhy. fig. 5)
You belong to me (w/ rhy. fig. 5)
Don't you know what it is

D                  A            B-
Am I ever going to find you out there
    G         A    D
I'm losing my confidence
Tap to rate this tab
 
# A B C D E F G H I J K L M N O P Q R S T U V W X Y Z