Song name
# A B C D E F G H I J K L M N O P Q R S T U V W X Y Z

Kelly Family - I Cant Help Myself tab

Help us improve GuitareTab! Take a short survey!
Capo on the 1st fret

Intro: 
  C              Am              F              G
E||-----0--------|-----0---------|----1-0-------|-0-----|
B||-1h3---3--1-1-|-1h3---1/3-1-1-|--------3-1---|---3---|
G||-0--------0-0-|-2---------2-2-|------------2-|-----0-|
D||--------------|---------------|--------------|-------|
A||-3------------|-0-------------|--3-----------|-------|
E||--------------|---------------|-1------------|-3-----|


Verse 1:
      C                   Am
E||---------0-------------------0----------|
B||-------1-----1-------------1-----1------|
G||-----0---------0---------2---------2----|
D||-----------------2-------------------2--|
A||--3-------------------0-----------------|
E||----------------------------------------|
     F                   G
E||---------1-------------------3----------|
B||-------1-----1-------------3-----3------|
G||-----2---------2---------0---------0----|
D||-----------------3-------------------0--|
A||----------------------------------------|
E||--1-------------------3-----------------|
Related for I Cant Help Myself tab