Song name
# A B C D E F G H I J K L M N O P Q R S T U V W X Y Z

Kelly Slusher - One More Thing tab

Help us improve GuitareTab! Take a short survey!
Notes in (*) are for emphasis

E|-------------------------------|
B|--8-7-5-5h7------5-5h7-5-------|
G|---------------7---------7-----|
D|-(5)---(5)---------------------|
A|--------------(5)-------(5)----|
E|-------------------------------|

E|------------------------------|
B|--2-3-5--0---3----------------|
G|-----------2------------------|
D|-(2)----(0)-------------------|
A|------------------------------|
E|------------------------------|

www.willdailey.com
Related for One More Thing tab