Song name
# A B C D E F G H I J K L M N O P Q R S T U V W X Y Z

Ken Freeman - Casualty Main Theme tab

Ken Freeman
http://en.wikipedia.org/wiki/Casualty_(TV_series)#Theme_music.2C_titles_and_credits
Freeman is mentioned in the part about the theme.

Song: Casualty Main Theme
Composer: Ken Freeman
Tabber: Tye1989

Tabbed this from memory so there me be some wrong bits (such as the end of the first line).
This in the wrong key but I have no idea how to fix it, it sounds okay played on it's 
I couldn't find the notes that should be in place of the repeat's either, should somebody 
them I would be more than grateful if you could get in touch.
Thanks!
Masamune12003@gmail.com

---------------------3-4-1-1-1-1-4-3-----------------------|
---------4-3-6-4-3-1-----------------4-----------8-6-4-----|
-----4-5-------------------------------5-5-5-5-8-------7---|
-5-7-------------------------------------------------------|
-----------------------------------------------------------|
-----------------------------------------------------------|

---------------------4-6-3----------------------------------|
---------4-3-6-4-3-1-------------------14-13-16----------18-|
-----4-5-------------------------14-15----------18-17-15----|
-5-7-----------------------15-17----------------------------|
------------------------------------------------------------|
------------------------------------------------------------|

Cheers!
Tye1989
Tap to rate this tab
# A B C D E F G H I J K L M N O P Q R S T U V W X Y Z