Song name
# A B C D E F G H I J K L M N O P Q R S T U V W X Y Z

Ken Hirai - Ookina Furudokei tab

Ookina Furudokei (grandfather's clock)

TUNING: Eb Bb Gb Db Ab Eb
*Down one half step
Originally: My Grandfather's clock by Henry Clay Work
Adapted by: Ken Hirai (http://www.kenhirai.net/)
Arranged for Guitar and Tabbed by: kadamczy@gmail.com
Comments appreciated!


||----------------------||---------------------------|
||----------------------||---1-----0--1--3-----1--3--|
||-----------------0----||*--0-----------0-----------|
||----------------------||*-----2-----------0--------|
||----------------------||---3-----------------------|
||----------------------||---------------3-----------|


-0--0--1--0--------------|-------------------------|----------------------||
-1-----------------3--3--|--1-----1----0--------0--|--1--------1--1-------||
-0-----------2-----------|--0----------0-----2-----|--0-----0-----0----0-*||
-------------3--3--------|-----2----------0--------|--2--2--------2------*||
-3-----------------------|--3----------2-----------|--3-----------3-------||
-------------1-----------|-------------3-----------|----------------------||


---------------------0-|-3-----0----------------|-----------------------0-|
-1--------1--1----1----|-1--------3--1-----0--1-|--3--1--0-----------1----|
-0-----0-----0---------|-0-----------2----------|--0--------2--0----------|
-2--2--------2---------|----2-----------2-------|--0-----------0--0-------|
-3-----------3---------|-3-----------0----------|-------------------------|
-----------------------|------------------------|--3-----------3----------|


--3-----0-----------------|-------------------------|---------------------|
--1--------3--1-----0--1--|--3-----------3----------|--1--1-------3-------|
--0--0--------2-----------|--0--------0----------0--|--0----------0-------|
--------------2--2--------|--0-----0----------------|--2----------0-------|
--3-----------0-----------|-----2-------------------|--3----------2-------|
--------------------------|--3----------------------|---------------------|


-0--0--1--0--------------|------------------------|-----------------------|
-1-----------------3--3--|--1-----1----0--------0-|-1--------1--1---------|
-0-----------2-----------|--0----------0-----2----|-0-----0-----0----0--0-|
-------------3--3--------|-----2----------0-------|----2--------2---------|
-3-----------------------|--3---------------------|-3-----------3---------|
-------------1-----------|-------------3----------|-----------------------|


--------------------------|--------------------------|
--1-----------------------|--------------------------|
--0-----0--0--2-----0--0--|--------0-----------0--0--|
--2--2-----------2--------|--2-----------2-----------|
--3-----------3-----------|--3--3-----3--3--3-----3--|
--------------------------|--------------------------|


--------------------------|--------------------------|--------------------|
--1-----------------------|--------------------------|--1--1-------3------|
--0-----0--0--2-----0--0--|--------0-----------0--0--|--0----------0------|
--2--2-----------2--------|--2-----------2-----------|--2----------0------|
--3-----------3-----------|--3--3-----3--3--3-----3--|--3----------2------|
--------------------------|--------------------------|--------------------|


--0--0--1--0--------------|-------------------------|---------------------|
--1-----------------3--3--|--1-----1----0--------0--|--1--------1--1------|
--0-----------2-----------|--0----------0-----2-----|--0-----0-----0------|
--------------3--3--------|-----2----------0--------|-----2--------2------|
--3-----------------------|--3----------------------|--3-----------3------|
--------------1-----------|-------------3-----------|---------------------|




Ookina noppo no furudokei 
Ojiisan no tokei 
Hyakunen itsumo ugoite ita 
Gojiman no tokei sa 
Ojiisan no umareta asa ni 
Katte kita tokei sa 
Ima wa mou ugokanai sono tokei 

Hyakunen yasumazu ni 
CHIKU TAKU CHIKU TAKU 
Ojiisan to issho ni 
CHIKU TAKU CHIKU TAKU 
Ima wa mou ugokanai sono tokei 

Nan demo shitteru furudokei 
Ojiisan no tokei 
Kirei na hanayome yatte kita 
Sono hi mo ugoiteta 
Ureshii koto mo kanashii koto mo 
Mina shitteru tokei sa 
Ima wa mou ugokanai sono tokei 

(wuu...Grandfather's clock 
TIKUTOKU TIKUTOKU 
wuu...Grandfather's clock 
TEIUTOKU TIKUTOKU) 

Ureshii koto mo kanashii koto mo 
Mina shitteru tokei sa 
Ima wa mou ugokanai sono tokei 

Mayonaka ni BERU ga natta 
Ojiisan no tokei 
Owakare no toki ga kita no o 
Mina ni oshieta no sa 
Tengoku e noboru ojiisan 
Tokei tomo owakare 
Ima wa mou ugokanai sono tokei 

Hyakunen yasumazu ni 
CHIKU TAKU CHIKU TAKU 
Ojiisan to issho ni 
CHIKU TAKU CHIKU TAKU 
Ima wa mou ugokanai sono tokei 
Ima wa mou ugokanai sono tokei
Tap to rate this tab
# A B C D E F G H I J K L M N O P Q R S T U V W X Y Z