Song name
# A B C D E F G H I J K L M N O P Q R S T U V W X Y Z

Ken Ring - Ber En Bon tab

 Ken ring - Ber en bön by D.Carlstedt

E-----------------|-----------------|-----------------|-----------------|
B-----0-----------|-----0-----------|-----0-----------|-----0-----------|
G-0-0--0--0-0-----|-0-0--0----------|-0-0--0--0-0-----|-0-0--0----------|
D-------------4-0-|--------5-4------|-------------4-0-|--------5-4------|
A-3-3-------------|-3-3--------5----|-3-3-------------|-3-3--------5----|
E---------3-3-----|--------------3--|---------3-3-----|--------------3--|

E--0-3-5----------|--0-3-5----------|--0-3-5----------|-----------------|
B--------3-5------|--------3-5------|--------3-5------|--5-3-0-5--------|
G-----------------|-----------------|-----------------|-----------------|
D-----------------|-----------------|-----------------|-----------------|
A-3---------------|-3---------------|-3---------------|-----------------|
E-----------------|-----------------|-----------------|-----------------|

That's pretty much all that's needed...

http://www.youtube.com/watch?v=vZ-MYrSDObI&feature=related
http://kenring.wordpress.com/
Tap to rate this tab
# A B C D E F G H I J K L M N O P Q R S T U V W X Y Z