Song name
# A B C D E F G H I J K L M N O P Q R S T U V W X Y Z

Ken Ring - Ber En Bon tab

Ken ring - Ber en bon.   By Kinezz

Gtr .1
E-------------------|--------------------|
B-----0-------------|-----0--------------|
G-0-0----0-----0----|-0-0----0-----------|
D-----2----4-4----0-|-----2-----5--4-----|
A-3-3------2-2-3----|-3-3-------3--2--5--|
E-------------------|-----------------3--|

Gtr .2
E----3--5---------|----3--5----------|----3--5----------|--3--2------------|
B---5--5---3--5---|---5--5---3--5----|---5--5---3--5----|--------3--0------|
G-----------------|------------------|------------------|------------------|
D-----------------|------------------|------------------|------------------|
A-----------------|------------------|------------------|------------------|
E-----------------|------------------|------------------|------------------|


http://www.youtube.com/watch?v=bxti41tEliE 
Tap to rate this tab
# A B C D E F G H I J K L M N O P Q R S T U V W X Y Z