Song name
# A B C D E F G H I J K L M N O P Q R S T U V W X Y Z

Ken Zazpi - Ilargia tab

Ken Zazpi – Ilargia

Drop D 

Intro:
        Dm            Bb                F           C
E|----------------------------------------------------------|
B|---------------------1------------------------3-----------|
G|-------------------3---3------------2-2-----5---5---------|  X 2
D|-------2-3-3-----3-------3--------3-------5-------5-------|
A|-----0---------1-----------1----3-------3-----------3-----|
D|---0--------------------------3---------------------------|


Esaiozu euriari
berriz ez jausteko
Esan bakardadeari
gaur ez etortzeko.


Dm     Bbsus4    F     Csus4
                                          X 2
Na na na Na na na na na


Heusten nauen soka zara
ta itotzen nauena
Ametsak sortu zizkidana
galtzen dituena


Dm     Bbsus4    F     Csus4
                                   X 2
Na na na Na na na na na



Estribillo:

  Dm*     C*      Bb       F  C*
Zuretzat ilargia lapurtuko nuke gauero,

  Dm*   C*        Bbm
eta zu itsu zaude bere argia ikusteko.

  Dm*       C*        Bb         F   C*
Irrifarrez, gero minez, eragin didazu negarra,

  Dm*     C*        Bbm               F        C
nire sua itzali da etzara gaueko izar bakarra, etzara.



Na na na na na na na...                X2


E|----5-----5-----6-----6-----6-------5-----5-----3-----3------3-----|
B|--------6-----6-----6-----6-----6-6-----6-----5-----5------5-----5-|
G|-7----7-----7-----7-----7-----7-------5-----5-----5------5-----5---|
D|-------------------------------------------------------------------|
A|-------------------------------------------------------------------|
E|-------------------------------------------------------------------|


Esan sentitzen dudana ez dela egia
Une baten sinisteko ez garen guztia


Dm     Bbsus4    F     Csus4
                                   X 2
Na na na Na na na na na


Na na na na na na na na...

Tap to rate this tab
# A B C D E F G H I J K L M N O P Q R S T U V W X Y Z