Song name
# A B C D E F G H I J K L M N O P Q R S T U V W X Y Z

Kendall Schmidt - Memories And Melodies chords

Highlighted       Show chord diagrams
I learnt this by ear, so I'm sure it's not 100%, but it sounds pretty good.

Key
/ = slide
* = mute
~ = let ring



(This is only a rough idea of the intro)

E|------------------------------------------------------------|
B|-----------2--------3---------3/5----------3--------2-------|
G|------------------------------------------------------------|
D|---0--0--------0--------0-----------0----------0------------|
A|------------------------------------------------------------|
E|------------------------------------------------------------|

E|------------------------------------------------------------|
B|------------------------------------------------------------|
G|---------------------0-----------4--------0-----------------|
D|---0--0---4-----0--------0-----------0-----0----4---0-------|
A|------------------------------------------------------------|
E|------------------------------------------------------------|






Bm*                                                             G5*
   I brought you this gift, memories, words intertwined with melodies
Bm*                                                G5*
I'm sure we've had our friends and our enemies but I don't like to reminisce like this





Bm*                          G5*  
                          Any more than you do
Bm*                          G5
                          Any more than you do





D           G5                D5         A5
      Everything will be just fine this time
D           G5                 D5        A5            G5
      Everything will be just fine this time




Let's give it a rest coz I don't wanna fight

Let's clean up this mess before it ends tonight

Bm*                                                    G5*
  I could've kissed your hand and tried to walk away but I don't like to reminisce like this






Bm*                       G5*
                      Any more than you do
Bm*                         G5
                       Any more than you do






D                 G5                D5        A5
            Everything will be just fine this time
D                 G5                D5        A5
            Everything will be just fine this time
D                 G5                D5            A5
            What do I have to say to make you feel alright
D                 G5                D5        A5
            Everything will be just fine this time







Bm-D5-E5-C#m               G5
                  Stop that, you keep looking me in the eye
Bm-D5-E5-C#m                     G5
                  Let's drop this, I don't have time for another try
Bm-D5-E5-C#m                G5
                  To be true is something I could never hide
Bm-D5-E5-C#m                     G5                        A5
                  It can't be you, I sit around and wonder why, why






D~                   G5~               D5~       A5~
               Everything will be just fine this time
D~                   G5~               D5~       A5
               Everything will be just fine this time






D                 G5                D5        A5
            Everything will be just fine this time
D                 G5                D5        A5
            Everything will be just fine this time
D                 G5                D5            A5
            What do I have to say to make you feel alright
D                 G5                D5        A5             G5
            Everything will be just fine this time





D-Dsus4-D   G5
D-Dsus4-D   G5
D-Dsus4-D   G5
D-Dus4-D-Dsus4-D
Tap to rate this tab
 
# A B C D E F G H I J K L M N O P Q R S T U V W X Y Z