Song name
# A B C D E F G H I J K L M N O P Q R S T U V W X Y Z

Kendrick Lamar - Bitch Dont Kill My Vibe tab

-------------------------------------------------------------------------------
               Kenrick Lamar- Bitch, Don't Kill My Vibe
-------------------------------------------------------------------------------
Tabbed by: AKIRA.sakai
E-mail: d3rrick95@hotmail.com
Tuning: Standard

This one bar just repeats throughout the whole song.
It MAY sound a little weird when first playing it, but it really needs the backing bass 
line to make it sound like the recording. Just get your loop pedal (or friend, but loop 
pedals are way cooler than friends) and you'll be good to go.

e|---------4----------------------------------------------------8------|
B|--8------6----------------------------------------------------8------|
G|--8------6----------------------------------------------------8------|
D|---------6-----------------------------------------------------------|
A|--8----- 4----------------------------------------------------8------|
E|---------------------------------------------------------------------|

And here's the bass tab that'll make it sound oh so sexy

G|---------------------------6------------------6------------------6/8------|
D|--------------------------------------------------------------------------|
A|-----------3---4--------------------4------------------4------------------|
E|--1---4-------------------------------------------------------------------|
Tap to rate this tab
 
# A B C D E F G H I J K L M N O P Q R S T U V W X Y Z