Song name
# A B C D E F G H I J K L M N O P Q R S T U V W X Y Z

Kendrick Lamar - Bitch Dont Kill My Vibe tab

-------------------------------------------------------------------------------
                             BITCH, DON"T KILL MY VIBE - Kendrick Lamar
-------------------------------------------------------------------------------

Artist: Kendrick Lamar
Song: "Bitch, Don't Kill My Vibe"
Album: good kid, m.A.A.d city (2012)


RHYTHM GUITAR (Repeats through entire song)

    Fmin7     C#maj7            Fmin7       

e|---8--8-------4----------------8----|
B|---8--8-------6----------------8----|
G|---8--8-------5----------------8---.|
D|---10-10------6---------------10---.|
A|---8--8-------4----------------8----|
E|---x--x-------x----------------x----|

LEAD GUITAR (small break at beginning)

e|---11p9p8----|
B|-------------|
G|------------.|
D|------------.|
A|-------------|
E|-------------|

BASS (Repeats through entire song)

G|---------------------------6------------------6------------------6/8------|
D|-------------------------------------------------------------------------.|
A|-----------3---4--------------------4------------------4-----------------.|
E|--1---4-------------------------------------------------------------------|


VIOLIN SOLO (arr. for guitar; 4:32 - END)

e|--8-6-8-11-8-6---6--------------------15-13----13-------15-15h16p15-13-----|
B|6--------------9---9-6-6-----6-----13-------16----16-13--------------------|
G|-------------------------8-5---8-5-----------------------------------------|
D|---------------------------------------------------------------------------|
A|---------------------------------------------------------------------------|
E|---------------------------------------------------------------------------|

e|-15-15h16p15-13-15-15h16p15-13-15-15h16p15-13-15p13h15p13h15---------------|
B|---------------------------------------------------------------------------|
G|---------------------------------------------------------------------------|
D|---------------------------------------------------------------------------|
A|---------------------------------------------------------------------------|
E|---------------------------------------------------------------------------|

e|----15-13------13----16-15-------16----------------------------------------|
B|-13------13-16----14----------13-------------------------------------------|
G|---------------------------15----------------------------------------------|
D|---------------------------------------------------------------------------|
A|---------------------------------------------------------------------------|
E|---------------------------------------------------------------------------|

e|-16--15--13--15-13----13---------------------------------------------------|
B|-------------------16----16-13-16--13----13--------------------------------|
G|--------------------------------------15----15-13-15-13--------------------|
D|--------------------------------------------------------15-----------------|
A|---------------------------------------------------------------------------|
E|---------------------------------------------------------------------------|

e|-------------13-16----13-16----13-16-20-18-20----20-18-20-16----16-18-16-20|
B|-------13-16-------16-------16----------------18-------------18------------|
G|-13-15---------------------------------------------------------------------|
D|---------------------------------------------------------------------------|
A|---------------------------------------------------------------------------|
E|---------------------------------------------------------------------------|
Tap to rate this tab
# A B C D E F G H I J K L M N O P Q R S T U V W X Y Z