Song name
# A B C D E F G H I J K L M N O P Q R S T U V W X Y Z

Kenge Shqip - Imazhi Yt chords

Highlighted       Show chord diagrams
Imazhi yt - Anjeza Shahini
http://www.youtube.com/watch?v=am8fch1FBjw

Intro   C#


e|-8/9-8-------------------|
B|-------8-----------------|
G|---------9/10------------|


C#                          G#
Kur vjen nė shpirt njė dashuri
F#                    C#
Sa e ēuditshme duket vetja
C#                         G#
E ndjehesh krejt tjetėr njeri
F#                         C#
E sa e shtrenjtė tė duket jeta


    Ebm              C#
E ndjehesh tjetėr njeri
     Ebm              C#
E shtrenjtė te duket jeta
      Ebm             C#
Kjo ndjenjė si njė magji
   Ebm           G#
Sa larg nga e vėrteta, a ha…

C#

C#               G#
Kaloj nė rrugė shpesh e hutuar
F#          C#
Mė shikojnė dy hapa larg
C#              G#
Si ēdo njeri i dashuruar
F#          G#
Nė sy mbaj veē njė imazh


   Ebm             C#
Mė puth sa herė kėrkoj
    Ebm              C#
E ndjej nė cast njė mall
   Ebm             C#
I mbyll dy sytė harroj
      Ebm          G#
Jam mbretereshė si nė perrallė


       C#             F#-C#
Dua tė bėhem paksa e krisur
       C#
Dua tė bėhem me lot nė sy
       C#               F#-C#
Dua tė bėhem e gjum i prishur
Bbm    G#    C#
Dua tė bėhem imazhi yt


Solo(jo e plote):

   C#      G#           F#             C#                      
e|---------------11---------------------------------------------------------|
B|-13b14h--13-14-----------------14-----------------------------------------|
G|------------------13--11-10-11----11-10-11-13-10--------------------------|
D|--------------------------------------------------13-11-13-13/15+---------|
A|--------------------------------------------------------------------------|
E|--------------------------------------------------------------------------|

            G#           F#             C#                    
e|-------------16-14-13------------------------------------------13-----13--|
B|----------------------16b18--14----11-14---------------14-16b18--16b18----|
G|-10-11-13-13+-------------------13h--(13)-13---------13-------------------|
D|---------------------------------------------13\---15---------------------|
A|-------------------------------------------------16-----------------------|
E|--------------------------------------------------------------------------|

            G#              F#              C#  
e|----------16b18r16-16--18-21-21-21-18-----18------------------------------|
B|-14-11--------------------------------21b---------------------------------|
G|-------13-----------------------------------------------------------------|
D|--------------------------------------------------------------------------|
A|--------------------------------------------------------------------------|
E|--------------------------------------------------------------------------|
 
C#

C#               G#
Kaloj nė rrugė shpesh e hutuar
F#          C#
Mė shikojnė dy hapa larg
C#              G#
Si ēdo njeri i dashuruar
F#          G#
Nė sy mbaj veē njė imazh


   Ebm             C#
Mė puth sa herė kėrkoj
    Ebm              C#
E ndjej nė cast njė mall
   Ebm             C#
I mbyll dy sytė harroj
      Ebm          G#
Jam mbretereshė si nė perrallė


       C#             F#-C#
Dua tė bėhem paksa e krisur
       C#
Dua tė bėhem me lot nė sy
       C#               F#-C#
Dua tė bėhem e gjum i prishur
Bbm    G#    C#
Dua tė bėhem imazhi yt


       C#             F#-C#
Dua tė bėhem paksa e krisur
       C#
Dua tė bėhem me lot nė sy
       C#               F#-C#
Dua tė bėhem e gjum i prishur
Bbm    G#    C#
Dua tė bėhem imazhi yt


(Dua tė bėhem) paksa e krisur

(Dua tė bėhem) me lot nė sy

(Dua tė bėhem) imazhi yt


     C#              B-C#
E ndjehesh tjetėr njeri
      C#              B-C# 
E shtrenjtė te duket jeta
     C#             B-C#
E ndjehesh tjetėr njeri
      C#              B-C#
E shtrenjtė te duket jeta!
Tap to rate this tab
 
# A B C D E F G H I J K L M N O P Q R S T U V W X Y Z