Song name
# A B C D E F G H I J K L M N O P Q R S T U V W X Y Z

Kenge Shqip - Pyes Lotin chords

Highlighted       Show chord diagrams
Pyes lotin - Elsa Lila
http://www.youtube.com/watch?v=hgINAU3perk


Intro :


e|----------------------------------------3/5-5/8-5p3h5p3\1p0-----|
B|-3/5-3h5p3h5p3h5-5\-1-1h3-5\-1-3p1h3p1--------------------------|
G|----------------------------------------------------------------|
D|----------------------------------------------------------------|
A|----------------------------------------------------------------|
E|----------------------------------------------------------------|

e|-0-3------------------------------------------------------------|
B|-----5\3-1-1h3p1h3----------------------------------------------|
G|----------------------------------------------------------------|
D|----------------------------------------------------------------|
A|----------------------------------------------------------------|
E|----------------------------------------------------------------|


     C                     F
Tė flisja gjuhėt e gjithė botės 
                 G    C
E tė mos ndjeja dashuri
   C                  F
Do isha si njė gur i heshtur 
                 G     C
Kėmbanė harruar nė vetmi. 


     C                 F
Tė gjithė pasurinė e ndaja 
               G    C
Tė mos shihja varfėri 
    C                   F
Tė digjej trupin do ta falja 
         G     C
E le tė bėhej hi. 


 Em                 Am
Se ėndrrat edhe shpresat 
Em                   Am
Pa dashurinė janė thjesht njė iluzion 
F               G  
Ndaj dua o njeri, t'i fal pak dashuri 
F                                   G
Pa tė ēfarė ėshtė kjo botė, a e kupton? 


              C                 Am
Se loti qė pikon, njė zemėr lėndon 
            F                     G
I vogėl na duket, i madh sa njė glob 
C                       Am
O botė e di se ē'tė mundon 
              F                 C
Se ka njerėz sot qė duan vetėm lot 
               G
S'njohin dashurinė, s'njohin mirėsinė. 


     C                     F
Tė flisja gjuhėt e gjithė botės 
                 G    C
E tė mos ndjeja dashuri
   C                  F
Do isha si njė gur i heshtur 
                 G     C
Kėmbanė harruar nė vetmi. 


     C                 F
Tė gjithė pasurinė e ndaja 
               G    C
Tė mos shihja varfėri 
    C                   F
Tė digjej trupin do ta falja 
         G     C
E le tė bėhej hi. 



Interlude : 

   Em          Am Em        Am        F        
e|------------------------5------------------------------|
B|-8-8-8-5-5------8-8-8-8---5--------------5-8-5-8-------|
G|-----------7-5--------------7-5-7-5--5-7---------------|
D|-------------------------------------------------------|
A|-------------------------------------------------------|
E|-------------------------------------------------------|

  G             F            G
e|-8-7-5-7-5-5---------5---5--5-7-8-10-------------------|
B|---------------6-6-8---8-------------------------------|
G|-------------------------------------------------------|
D|-------------------------------------------------------|
A|-------------------------------------------------------|
E|-------------------------------------------------------|


              C#               Bbm
Se loti qė pikon, njė zemėr lėndon 
            F#                    G#
I vogėl na duket, i madh sa njė glob 
C#                     Bbm
O botė e di se ē'tė mundon 
              F#                C#
Se ka njerėz sot qė duan vetėm lot 
               G#
S'njohin dashurinė, s'njohin mirėsinė. 


 C#                   F#
Dashuria, ėndrra, shpresa 
                 G#     C#
kė tė zgjidhja nga tė tria 
  C#                F#
dhe njė natė lotin pyeta 
                G#   C#
mu pėrgjigj... Dashuria
Tap to rate this tab
 
# A B C D E F G H I J K L M N O P Q R S T U V W X Y Z