Song name
# A B C D E F G H I J K L M N O P Q R S T U V W X Y Z

Kenge Shqip - Lulekuqe Mbi Mur tab

Kolona zanore e filmit "Lulekuqe mbi mur" - Kujtim Laro
http://www.youtube.com/watch?v=D2wkdD-CErM


e|-3-2-3-0-2-7\-3-2-3-0-2-7\-3-2-3-0-2-7\-0---7-7/19------------|
B|------------------------------------------7---7/19------------|
G|--------------------------------------------------------------|
D|-2------------0-----------------------------------------------|
A|---------------------------3----------------------------------|
E|----------------------------------------7---------------------|


       Em             Am                         C                 B7
e|-7-5-7--8-10-8-7-12\------------------7-8-7----------------------7-----|
B|--------------------10-(10-8-10-7-10)-------10-8-(8-7-8-5-8)---7-------|
G|-------------------------------------------------------------9---------|
D|-----------------------------------------------------------------------|
A|-----------------------------------------------------------------------|
E|-----------------------------------------------------------------------| X3
Tap to rate this tab
# A B C D E F G H I J K L M N O P Q R S T U V W X Y Z