Kenichi Asai - Mad Surfer tab

First tab, solo done by ear, and might have missed a part at the end, though I 
think its mostly correct.

Intro:
|----------------------------------------------------------------------------|
|----------------------------------------------------------------------------|
|----------7-7-5-------------------------------------------------------------|
|--12\-0-0-------7-5~--3-5-6-5-3-2-------------------------------------------|
|----------------------------------6-----------------------------------------|

Chorus(chords):
|------------------------------------------|
|--------5---------------------------------|
|--7-----5----5----------------------------|
|--7-----3----5----------------------------|
|--5----------3----------------------------|

Verse(chords):
|-----------------------------------------|
|--------5------7------10-----------------|
|--7-----5------7------10-----------------|
|--7-----3------5------8------------------|
|--5--------------------------------------|

Solo:
|--------------------------------------------------------------------------|
|--------------------------------------------------------------------------|
|--------------------------------------------------------------------------|
|--7-5---------------------------7-5---------------------------------------|
|------7-6-----3-5-6-5-3-------------7-6------3-5-6-5-6--------------------|
|------------------------5------------------------------5------------------|

|-----------------------------------------------------------------------------|
|-----------------------------------------------------------------------------|
|-----------------------------------------------------------------------------|
|-------------------------------------------------7-5-------------------------|
|-------------3-5b-5-3----------------3---------------7-6----3-5-6-5-3--------|
|5-3-5-3(3)-5------------5-3-5-3(3)-5---5-0-3-5------------------------5------|

|------------------------------|
|------------------------------|
|------------------------------|
|7-5------------7-5------------|
|----7-6------------6-7--------|
|-----------/5----------5------|
Tap to rate this tab
 
# A B C D E F G H I J K L M N O P Q R S T U V W X Y Z