Song name
# A B C D E F G H I J K L M N O P Q R S T U V W X Y Z

Kenichi Matsubara - Castlevania 2 - Silence Of Daylight tab

Title:     Silence of Daylight
Game:      Castlevania 2 - Simon's Quest
Composer:  Kenichi Matsubara
Year:      1988
Tabber:    RyskaG

Time measure 2/4

    E  S S  E   E  E  E  S S   E. S  Q    Q     S S S S
E||------1--L-|-L--------0-1-|-0-------|----------------|
B||-3---------|--------------|----3--L-|--L-------------|
G||----0------|--------------|---------|--------3-2-3-1-|
D||-----------|--------------|---------|----------------|
A||-----------|--------------|---------|----------------|
E||-----------|--------------|---------|----------------|


   S S S S Q   Q    S S S S   E. S  Q   Q    S S S S
||-3-3---1-L-|-L--------0-1-|-0-------|--------------|
||-----------|--------1-----|----3--L-|-L------------|
||-----0-----|------3-------|---------|------3-2-3-1-|
||-----------|--------------|---------|--------------|
||-----------|--------------|---------|--------------|
||-----------|--------------|---------|--------------|

    S S S S Q   Q   E  S S   E. S E  E   S S E  E  E
||------------|------------|-----------|-----------2--|
||*-3-2-1-----|------------|-----------|---1-L--4-----|
||--------0-L-|-L------0-2-|-0-------2-|-L------------|
||------------|------------|----4-L----|--------------|
||*-----------|------------|-----------|--------------|
||------------|------------|-----------|--------------|(x2)

   E.  S S S S S   Q    S S S S   E.  S S S S S   Q    S S S S
||---------------|--------------|-------------1-|----------1-5-|
||-------------3-|------------3-|-1---------1---|-4------3-----|
||-2---------2---|-3------0-3---|---------2-----|------3-------|
||-----0-L-4-----|------0-------|-----3-L-------|--------------|
||---------------|--------------|---------------|--------------|
||---------------|--------------|---------------|--------------|

   E.  S S S S S   Q    Q   Q    S S S S   S Q    E.
||-4-----------3-|-1------|-3----L---0-3-|-2-L-------|
||-----3-L---3---|------4-|-5----L-2-----|-3-L-------|
||---------3-----|--------|--------------|-----------|
||---------------|--------|--------------|-----------|
||---------------|--------|--------------|-----------|
||---------------|--------|--------------|-----------|

   E.  E.  E   H        E.  E.  E   H
||-3---1-----|--------|-----------|--------|
||-3---1---3-|-L------|-1---------|--------|
||---------3-|-L------|-----------|--------|
||-----------|--------|-----4---0-|-L------|
||-----------|--------|-----------|--------|
||-----------|--------|-----------|--------|
 
   E.  E.  E   H        E.  E.  E   Q
||-----------|--------|-----------|-----||
||-----------|--------|-----------|----*||
||-0---------|--------|-----------|-----||
||-0---3---0-|-L------|-0---------|-----||
||-----3---1-|-L------|-----------|----*||
||-----------|--------|-----2---3-|-L---||


Duration Legend
---------------
W - whole
H - half
Q - quarter
E - 8th
S - 16th
L - tied note
. - dotted note
Tap to rate this tab
# A B C D E F G H I J K L M N O P Q R S T U V W X Y Z