Song name
# A B C D E F G H I J K L M N O P Q R S T U V W X Y Z

Kenichi Matsubara - Bloody Tears tab

Email: luis_silva_DM@hotmail.com

|--------------------|
|--------------------|
|-----11--7----6-----|     (x2)
|--9-------------9---|
|--------------------|
|--------------------|

|----------------------------------|
|----------------------------------|
|-----11--7----6---4-7-9-11---7-6--|
|--9-------------------------------|
|----------------------------------|
|----------------------------------|
Tap to rate this tab
# A B C D E F G H I J K L M N O P Q R S T U V W X Y Z