Song name
# A B C D E F G H I J K L M N O P Q R S T U V W X Y Z

Kenin - Share A Smoke tab

kenin-music.com

Song: Share a Smoke
Artist: Kenin

  this band isn't too popular, but i decided to put this song up anyways because
this band is freaking amazing. E-mail me if you want more...
there shouldn't be any corrections but if u think so, email me


Capo 2- all chords relative to the capo


   Intro/Verse
e--------------------------------------------------|
B--------------------------------------------------|
G---9----6---9----6--------------------------------|
D---9----9---9----7--------------------------------|
A---7----9---X----7--------------------------------|
E--------7---9----5--------------------------------|

  
   Chorus
e--------------------------------------------------|
B--------------------------------------------------|
G---9----6----9---1--6----8------------------------|
D---9----9----9---2--7----9------------------------|
A---7----9----X---2--7----9------------------------|
E--------7----9------5----7------------------------|
   

     Bridge
e------------------------------------------------|
B------------------------------------------------|
G---9----8---6-----------------------------------|
D---9----9---7-----------------------------------|
A---7----X---X--------------

--------------------|
E--------7---5-----------------------------------|


TRICKS:

 In the verse and chorus the 3rd chord can also be

A---------7-------|
E----7h9----------|

  In the intro the last chord is sometimes played like this:
e-----------------------------|
B-----------------------------|
G--11--9--8--9----------------|
D---X--X--X--X----------------|
A---9--7--6--7----------------|
E---X--X--X--X----------------|
        ^ play really fast...listen to the song closely for timing
Tap to rate this tab
# A B C D E F G H I J K L M N O P Q R S T U V W X Y Z