Song name
# A B C D E F G H I J K L M N O P Q R S T U V W X Y Z

Kenn With The Nabs - Wake Up Your Heart tab

Wake Up Your Heart- KENN with the NaB's (http://www.dreamweaverjapan.com/kenn/top.html)

Drop C#

Intro:

0:00 - 0:13

guitar 1
d#|---------------------------------------------------------|
A#|---------------------------------------------------------|
F#|--------------------------------9-11---------------------|
C#|-9-------------7-8-9------------9-11-9-------------7-8-9-|
G#|-9-99999999999-7-8-9-9999999999-7--9-9-99999999999-7-8-9-|
C#|-9-99999999999-7-8-9-9999999999------9-99999999999-7-8-9-|
      ...........       ..........        ........... 

d#|-----------------|
A#|-----------------|
F#|-----------------|
C#|-----------------|
G#|-99999999999-///-|
C#|-99999999999-///-|
    ...........

0:14 - 0:24

guitar 1
d#|--------------------------------------|
A#|--------------------------------------|
F#|--------------------------------------|
C#|-9--------4--------6--------2---------|
G#|-9-999999-4-444444-6-666666-2-222222--|
C#|-9-999999-4-444444-6-666666-2-222222--|
      ......   ......   ......   ......

d#|-----------------------------------|
A#|-----------------------------------|
F#|-----------------------------------|
C#|-9--------4--------6--------22-44--|
G#|-9-999999-4-444444-6-666666-22-44--|
C#|-9-999999-4-444444-6-666666-22-44--|
      ......   ......   ......  

guitar 2
d#|-------------|
A#|-------------|
F#|-8-6-9-8-688-|x3
C#|-x-x-x-x-xxx-|
G#|-6-4-7-6-466-|
C#|-------------|

d#|---------------|
A#|---------------|
F#|-8-6-99--11/11-|
C#|-x-x-xx---x--x-|
G#|-6-4-77---9--9-|
C#|---------------|

Verse 1: 

0:25 - 0:47

d#|---------------------------------------|
A#|---------------------------------------|
F#|---------------------------------------|
C#|-6x6-66-x-2x2-22-x--9x9-99-x-8x8-88-x--|
G#|-6x6-66-x-2x2-22-x--9x9-99-x-8x8-88-x--|
C#|-6x6-66-x-2x2-22-x--9x9-99-x-8x8-88-x--|

d#|---------------------------------------|
A#|---------------------------------------|
F#|---------------------------------------|
C#|-6x6-66-x-4x4-44-x--2x2-22-x-2x2-22-x--|
G#|-6x6-66-x-4x4-44-x--2x2-22-x-2x2-22-x--|
C#|-6x6-66-x-4x4-44-x--2x2-22-x-2x2-22-x--|

d#|---------------------------------------|
A#|---------------------------------------|
F#|---------------------------------------|
C#|-6x6-66-x-2x2-22-x--9x9-99-x-8x8-88-x--|
G#|-6x6-66-x-2x2-22-x--9x9-99-x-8x8-88-x--|
C#|-6x6-66-x-2x2-22-x--9x9-99-x-8x8-88-x--|

d#|---------------------------------------|
A#|---------------------------------------|
F#|---------------------------------------|
C#|-6x6-66-x-4x4-44-x--2x2-22-x-2x2-22-x--|
G#|-6x6-66-x-4x4-44-x--2x2-22-x-2x2-22-x--|
C#|-6x6-66-x-4x4-44-x--2x2-22-x-2x2-22-x--|

Pre-Chorus:

0:48 - 1:03

d#|------------------------|
A#|------------------------|
F#|-6-x6--8-x8--9-x9--6-x6-|
C#|-4-x4--6-x6--9-x9--4-x4-|
G#|-4-x4--6-x6--7-x7--4-x4-|
C#|-4-x4--6-x6--------4-x4-|
                        (^octave petal on last chord)

d#|------------------------------------------------------------|
A#|------------------------------------------------------------|
F#|-6--------8--------9--------9x9-99--11x11-11/11/11-11/11/11-|
C#|-4--------6--------9-999999-9x9-99--11x11-11/11/11-11/11/11-|
G#|-4-444444-6-666666-7-777777-7x7-77---9x-9--9--9--9--9--9--9-|
C#|-4-444444-6-666666------------------------------------------|
      ......   ......   ......

d#|--------------|
A#|--------------|
F#|-6-66666-6-66-|
C#|-4-44444-4-44-|
G#|-4-44444-4-44-|
C#|-4-44444-4-44-|

Chours 1 

1:04 - 1:32

guitar 1
d#|---------------------------------------|
A#|---------------------------------------|
F#|---------------------------------------|
C#|-9-99-999-4-44-444-6-66-666-2-22-222---|
G#|-9-99-999-4-44-444-6-66-666-2-22-222---|
C#|-9-99-999-4-44-444-6-66-666-2-22-222---|
  
  
d#|------------------------------|
A#|------------------------------|
F#|------------------------------|
C#|-6-66-666-4-44-444-2-2226-444-|
G#|-6-66-666-4-44-444-2-2226-444-|
C#|-6-66-666-4-44-444-2-2226-444-|
  |
  | (guitar 2)
d#|----------------------------------|
A#|----------------------------------|
F#|-13--13-13--11--11-11--9--9-9-11~-|
C#|--x---x--x---x---x--x--x--x-x--x--|
G#|-11--11-11---9---9--9--7--7-7--9~-|
C#|----------------------------------|


d#|---------------------------------------|
A#|---------------------------------------|
F#|---------------------------------------|
C#|-9-99-999-4-44-444-6-66-666-2-22-222---|
G#|-9-99-999-4-44-444-6-66-666-2-22-222---|
C#|-9-99-999-4-44-444-6-66-666-2-22-222---|


d#|-------------------------------------------------|
A#|-------------------------------------------------|
F#|-------------------------------------6-66-666-6~-|
C#|-6-66-666-4-44-444-2-22-222-1-11-111-6-66-666-4~-|
G#|-6-66-666-4-44-444-2-22-222-1-11-111-4-44-444-4~-|
C#|-6-66-666-4-44-444-2-22-222-1-11-111----------4~-|
  |
  | (guitar 2)
d#|--------------------------------------------------|
A#|--------------------------------------------------|
F#|-13--13-13--11--11-11--9--9-9--8--8-8--6--6-6-11~-|
C#|--x---x--x---x---x--x--x--x-x--x--x-x--x--x-x--x--|
G#|-11--11-11---9---9--9--7--7-7--6--6-6--4--4-4--9~-|
C#|--------------------------------------------------|

d#|-----------|
A#|-----------|
F#|-9x9x9x9x9-|
C#|-9x9x9x9x9-|
G#|-7x7x7x7x7-|
C#|-----------|

Post-Chorus:

1:33 - 1:43

guitar 1
d#|--------------------------------------|
A#|--------------------------------------|
F#|--------------------------------------|
C#|-9--------4--------6--------2---------|
G#|-9-999999-4-444444-6-666666-2-222222--|
C#|-9-999999-4-444444-6-666666-2-222222--|
      ......   ......   ......   ......

d#|-----------------------------------|
A#|-----------------------------------|
F#|-----------------------------------|
C#|-9--------4--------6--------22-44--|
G#|-9-999999-4-444444-6-666666-22-44--|
C#|-9-999999-4-444444-6-666666-22-44--|
      ......   ......   ......  

guitar 2
d#|-------------|
A#|-------------|
F#|-8-6-9-8-688-|
C#|-x-x-x-x-xxx-|
G#|-6-4-7-6-466-|
C#|-------------|

d#|---------------|
A#|---------------|
F#|-8-6-9-8-11/11-|
C#|-x-x-x-x-11/11-|
G#|-6-4-7-6--9--9-|
C#|---------------|

d#|-------------|
A#|-------------|
F#|-8-6-9-8-688-|
C#|-x-x-x-x-xxx-|
G#|-6-4-7-6-466-|
C#|-------------|

d#|---------------|
A#|---------------|
F#|-8-6-99--11/11-|
C#|-x-x-xx---x--x-|
G#|-6-4-77---9--9-|
C#|---------------|

Verse 2: same as verse 1
Pre-Chorus 2: same as Pre-chorus 1
Chorus 2: same as Chorus 1

Solo 2:51 - 3:18

lead guitar
d#|--------------------------------|
A#|--------------------------------|
F#|-------------------------66-----|
C#|-7-777777-66-79--7-777777---97--|
G#|--------------------------------|
C#|--------------------------------|

d#|-------9-10p9----9----9-10p9----9----9-10p9----12---------------|
A#|-10-10--------12---10--------12---10--------12----10-10---9-12--|
F#|--------------------------------------------------------9-------|
C#|----------------------------------------------------------------|
G#|----------------------------------------------------------------|
C#|----------------------------------------------------------------|

d#|------------------------------11*-------------12p11---12p11---------|
A#|-12*------11-12-14*------11-14----12---11-14-------12---------11-14-|
F#|-----11-11----------11-11------------11---------------------11------|
C#|--------------------------------------------------------------------|
G#|--------------------------------------------------------------------|
C#|--------------------------------------------------------------------|
[ * = whammy bar]


d#|---14--------14-------12-12-11-12-14|---------------------------------------|
A#|12----12-/11----11-/9---------------|12p11---12p11---12p11---12p11---12p11--|
F#|------------------------------------|-----11------11------11------11------11|
C#|------------------------------------|---------------------------------------|
G#|------------------------------------|---------------------------------------|
C#|------------------------------------|---------------------------------------|
                                       |- - - - - - - Octave Petal - - - - - - |

d#|----------------11-12-14~-|
A#|-------11-12-14-----------|
F#|-11-13--------------------|
C#|--------------------------|
G#|--------------------------|
C#|--------------------------|


rhythm guitar
d#|---------------------------------------|
A#|---------------------------------------|
F#|---------------------------------------|
C#|-7-77-777-2-22-222-4-44-444-0-00-000---|x2
G#|-7-77-777-2-22-222-4-44-444-0-00-000---|
C#|-7-77-777-2-22-222-4-44-444-0-00-000---|

d#|---------------------------------------|
A#|---------------------------------------|
F#|---------------------------------------|
C#|-9-99-999-4-44-444-6-66-666-2-22-222---|
G#|-9-99-999-4-44-444-6-66-666-2-22-222---|
C#|-9-99-999-4-44-444-6-66-666-2-22-222---|

d#|---------------------------------------|
A#|---------------------------------------|
F#|---------------------------------------|
C#|-9-99-999-4-44-444-2-22-222-2-22-222---|
G#|-9-99-999-4-44-444-2-22-222-2-22-222---|
C#|-9-99-999-4-44-444-2-22-222-2-22-222---|

d#|-----------------------------------------------|
A#|-----------------------------------------------|
F#|-11-11/11-11/11/11-11-11/11-11/11/11--6-666666-|
C#|-11-11/11-11/11/11-11-11/11-11/11/11--4-444444-|
G#|--9--9--9--9--9--9--9--9--9--9--9--9--4-444444-|
C#|--------------------------------------4-444444-|

Chorus 3

3:19 - 3:45

guitar 1
d#|---------------------------------|
A#|---------------------------------|
F#|---------------------------------|
C#|-99-4-44-444-6-66-666-2-22-222---|
G#|-99-4-44-444-6-66-666-2-22-222---|
C#|-99-4-44-444-6-66-666-2-22-222---|
  
  
d#|------------------------------|
A#|------------------------------|
F#|------------------------------|
C#|-6-66-666-4-44-444-2-2226-444-|
G#|-6-66-666-4-44-444-2-2226-444-|
C#|-6-66-666-4-44-444-2-2226-444-|
  |
  | (guitar 2)
d#|----------------------------------|
A#|----------------------------------|
F#|-13--13-13--11--11-11--9--9-9-11~-|
C#|--x---x--x---x---x--x--x--x-x--x--|
G#|-11--11-11---9---9--9--7--7-7--9~-|
C#|----------------------------------|


d#|---------------------------------------|
A#|---------------------------------------|
F#|---------------------------------------|
C#|-9-99-999-4-44-444-6-66-666-2-22-222---|
G#|-9-99-999-4-44-444-6-66-666-2-22-222---|
C#|-9-99-999-4-44-444-6-66-666-2-22-222---|


d#|-------------------------------------------------|
A#|-------------------------------------------------|
F#|-------------------------------------6-66-666-6~-|
C#|-6-66-666-4-44-444-2-22-222-1-11-111-6-66-666-4~-|
G#|-6-66-666-4-44-444-2-22-222-1-11-111-4-44-444-4~-|
C#|-6-66-666-4-44-444-2-22-222-1-11-111----------4~-|
  |
  | (guitar 2)
d#|----------------------------------------------------|
A#|----------------------------------------------------|
F#|-13--13-13--15--15-15-16-16-16-11-11-11--9--9-9-11~-|
C#|--x---x--x---x---x--x--x--x--x--x--x--x--x--x-x--x--|
G#|-11--11-11--13--13-13-14-14-14--9--9--9--7--7-7--9~-|
C#|----------------------------------------------------|

Outro

3:46

guitar 1
d#|--------------------------------------|
A#|--------------------------------------|
F#|--------------------------------------|
C#|-9--------4--------6--------2---------|
G#|-9-999999-4-444444-6-666666-2-222222--|
C#|-9-999999-4-444444-6-666666-2-222222--|
      ......   ......   ......   ......

d#|-----------------------------------|
A#|-----------------------------------|
F#|-----------------------------------|
C#|-9--------4--------6--------22-44--|
G#|-9-999999-4-444444-6-666666-22-44--|
C#|-9-999999-4-444444-6-666666-22-44--|
      ......   ......   ......  

guitar 2
d#|-------------|
A#|-------------|
F#|-8-6-9-8-688-|
C#|-x-x-x-x-xxx-|
G#|-6-4-7-6-466-|
C#|-------------|

d#|----------------|
A#|----------------|
F#|-8-6-11-11-4-44-|
C#|-x-x--x--x-x-xx-|
G#|-6-4--9--9-2-22-|
C#|----------------|

d#|-------------|
A#|-------------|
F#|-8-6-9-8-688-|
C#|-x-x-x-x-xxx-|
G#|-6-4-7-6-466-|
C#|-------------|

d#|---------------|
A#|---------------|
F#|-8-6-99--11/11-|
C#|-x-x-xx---x--x-|
G#|-6-4-77---9--9-|
C#|---------------|

End on
d#|----|
A#|----|
F#|-9~-|
C#|-9~-|
G#|-7~-|
C#|----|

Questions? yukimaruyoshida@live.com
Tap to rate this tab
 
# A B C D E F G H I J K L M N O P Q R S T U V W X Y Z