Song name
# A B C D E F G H I J K L M N O P Q R S T U V W X Y Z

Kenny Chesney - Someday I Might Get Over You tab

-------------------------------------------------------------------------------
    	     Someday I might get over you - Kenny Chesney
-------------------------------------------------------------------------------
Tabbed by: Okilo11
Email: oliver@killoren.com

This is my first ever tab, I noticed there wasn't a tab for it since it is normally 
on the piano.  If you want to sound more like the piano, strum individual notes of the same 
before strumming the chord. Enjoy!

The order of the song is this: Verse 1, Verse 2, Chorus, Verse 3, Chorus, Verse 4, Outro

Tuning:

VERSES:

e|---------2---------4------------2-----------2---------|
B|---------4---------4------------2-----------4---------|
G|---------4---------4------------3-----------4---------|
D|---------4---------6------------4-----------4---------|
A|---------2---------6------------4-----------2---------|
E|-------------------4------------2---------------------|

V1
    Well I opened my heart,   and I let you   in
V2
 I wear my ring on a chain now, instead of my hand
V3
If I could ever      feel     the way I       felt
V4
    Well I opened my heart,   and I let you   in
OUTRO
Though it may not   be til    my life  is    through

e|-----2------------0------2------2-------------|
B|-----4------------0------2------2-------------|
G|-----4------------1------3------4-------------|
D|-----4------------2------4------4-------------|
A|-----2------------2------4------2-------------|
E|------------------0------2--------------------|

V1
     I Promised I'd never, love again
V2
And I deal with your memories the best I can
V3
I'll take a chance with someone else
V4
I promised I'd never love again
OUTRO
Someday I might get over you

e|------2-----------4-------2---------2---------|
B|------4-----------4-------2---------4---------|
G|------4-----------4-------3---------4---------|
D|------4-----------6-------4---------4---------|
A|------2-----------6-------4---------2---------|
E|------------------4-------2-------------------|

V1
And I'm still doin' what I, said I'd do
V2
I've even been out on a date or two
V3
And if my heart takes chances too
V4
Right now it's still somethin I can't do

e|-----2---------0----------2----2-------------|
B|-----4---------0----------2----2-------------|
G|-----4---------1----------3----4-------------|
D|-----4---------2----------4----4-------------|
A|-----2---------2----------4----2-------------|
E|---------------0----------2------------------|

V1
       Someday I might get, over you
V2
Someday I might get over you
V3
Someday I might get over you
V4
Someday I might get over you
OUTRO
Someday I might get over you

**^^Repeat chord pattern for all verses^^**


CHORUS

e|----0-----------------2-------------2----------------2--------|
B|----0-----------------2-------------4----------------4--------|
G|----1-----------------3-------------4----------------4--------|
D|----1-----------------4-------------4----------------4--------|
A|----2-----------------4-------------2----------------2--------|
E|----0-----------------2---------------------------------------|

Oh, I never thought I'd see it, But I think I see the light now

e|----0----------------2--------------2--------------2--------|
B|----0----------------2--------------4--------------4--------|
G|----1----------------3--------------4--------------4--------|
D|----1----------------4--------------4--------------4--------|
A|----2----------------4--------------2--------------2--------|
E|----0----------------2--------------------------------------|

    I know that what I have to do, Is get on with my life, but I

e|----0------------2-------------2----------------2--------|
B|----0------------2-------------4----------------4--------|
G|----1------------3-------------4----------------4--------|
D|----1------------4-------------4----------------4--------|
A|----2------------4-------------2----------------2--------|
E|----0------------2---------------------------------------|

can't fake another day,  I can't face another night, so I

e|----0-----------------2---------------2------------------------|
B|----0-----------------2---------------2------------------------|
G|----1-----------------3---------------3------------------------|
D|----1-----------------4---------------4------------------------|
A|----2-----------------4---------------4------------------------|
E|----0-----------------2---------------2------------------------|

just take another breath, And let it go

| /  slide up
| \  slide down
| h  hammer-on
| p  pull-off
| ~  vibrato
| +  harmonic
| x  Mute note
=========================================================
Tap to rate this tab
 
# A B C D E F G H I J K L M N O P Q R S T U V W X Y Z