Song name
# A B C D E F G H I J K L M N O P Q R S T U V W X Y Z

Kenny Chesney - Being Drunks A Lot Like Loving You tab

Highlighted       Show chord diagrams
Intro: (Am7) (Csus2) (Am7) (Cadd2) (Am7) (Cadd2) 
(D)

(D)         (G)
Well I drank til I stumbled
  (C)
I drank til I fell
         (D)                       (G)
When the drunk part was over it hurt me like hell
                         (G7)      (C)
Now I know about drinking so I know one things true
           (D)        (D/F#)      (G)
Being drunk's a lot like loving you

   (C/D)   (G)
Cuz I loved til I stumbled
       (Cadd2)
I loved til I fell
         (D)                    (G)           (D7)
When the loving was over it hurt me like hell
      (G)             (G7)         (C)
Now I know what a taste of the wrong love can do
             (D)                   (G)
Being drunk's a lot like loving you

[Chorus]

         (D)                          (C)
And I've woke up some mornings and sworn off the drink
   (G)                     (D)
At that I've done reasonably well I think
                                   (C)
But I haven't done well swearing off you and me
   (Am7)                   (D)
At that I've failed miserably

          (G)                   (Cadd2)
Well I've felt the hangover of loving all night
     (D)                     (G)        (D7)
I've sat at the bar all alone in a fight
    (G)           (G7)       (C)
I've bottled up feelings and poured 'em out too
             (D)                   (G)
Being drunk's a lot like loving you

[Chorus]

         (D)                           (C)
And I've woke up some mornings and sworn off the drink
   (G)                      (D)
At that I've done reasonably well I think
                                    (C)
But I haven't done well swearing off you and me
   (Am7)                   (D)
At that I've failed miserably

Solo:
e|---------0--------3-5-7-7-7----0-3-3---3-0--0---3-2-0-2---2-0--0-----------|
B|---3---3---3--3--------------3------------3-------------------3---3--------|
G|---------------------------------------------------------------------------|
D|---------------------------------------------------------------------------|
A|---------------------------------------------------------------------------|
E|---------------------------------------------------------------------------|

e|-----0-3-5-5-7-7-10-10-7-10-10--8-7-8-7-5-3-2-3-0---8-7-8-8--8-7-8-8-------|
B|-0-3-----------------------------------------------------------------------|
G|---------------------------------------------------------------------------|
D|---------------------------------------------------------------------------|
A|---------------------------------------------------------------------------|
E|---------------------------------------------------------------------------|

e|--10-8-7-8-7-5-3-2-10------------------------------------------------------|
B|---------------------------------------------------------------------------|
G|---------------------------------------------------------------------------|
D|---------------------------------------------------------------------------|
A|---------------------------------------------------------------------------|
E|---------------------------------------------------------------------------|


       (G)
Well I drank til I stumbled
       (Cadd2)
I loved til I fell
         (D)                          (G)          (D7)
When the drunk part was over love hurt me like hell
      (G)        (G7)          (C)
Now I know about drinking so I know one things true
             (D)                   (G)
Being drunk's a lot like loving you

(C/D)       (G)           (G7)        (C)
Though I know what a taste of the wrong love can do
         (D)                       (C/G) (E♭/G) (G)
Sometimes I still get drunk loving you.


Just listen to the cd to get the timing down for the solo, I know the notes are right. I 
a lot of work into this, so if you like it please rate it!
Tap to rate this tab
# A B C D E F G H I J K L M N O P Q R S T U V W X Y Z