Guitaretab - guitar tabs
Song name
# A B C D E F G H I J K L M N O P Q R S T U V W X Y Z

Kenny Chesney - Young tab

----------------------------------------------------------------------------
			     YOUNG (SOLO)  Kenny Chesney
----------------------------------------------------------------------------
Tabbed by: Nickman022

Here's me playing it: http://www.youtube.com/watch?v=FMg0oT1j0Y0

Tuning: Standard

e|--------57brp5-7---5~--5-00-0-0-----------------------------------------|
B|-----/7-----------7-------77-5-5/2-0h2p0--0------------------------------|
G|-----------------------------------------2--2----2-----------------------|
D|-/7~------------------------------------------2-4------------------------|
A|---------------------------------------------------3b-3b-0---------------|
E|-------------------------------------------------------------------------|
[ Tab from: http://www.guitaretab.com/k/kenny-chesney/190432.html ]
                 || these 0's on the high E string are optional
                 VV they're not on the album version but they're there live.
                  
e|----------------0-0-0-0--0--0--0--0--0--0--------------------------------|
B|----------------5/7-7/10-10/12-12/14-14/17-17p14-------17p14-17p14-------|
G|----------2-4/6----------------------------------16p14-------------16p14-|
D|----(2)/4----------------------------------------------------------------|
A|(0)----------------------------------------------------------------------|
E|-------------------------------------------------------------------------|

e|-------------------------------------------------------------------------|
B|-17p14-17p14-------17p14-------17p14-------17p14-------17p14-------------|
G|-------------16p14-------16p14-------16p14-------16p14-------16p14/13~~--|
D|-------------------------------------------------------------------------|
A|-------------------------------------------------------------------------|
E|-------------------------------------------------------------------------|

| /  slide up
| \  slide down
| h  hammer-on
| p  pull-off
| ~  vibrato
| +  harmonic
| x  Mute note
============================================================================
Related for Young tab