Song name
# A B C D E F G H I J K L M N O P Q R S T U V W X Y Z

Kenny Chesney - There Goes My Life tab

I couldn't find the intro bit online so I thought I would figure it out myself... I aslo
use a capo in anyway... In my mind, this is at least 99.98% correct...


Before he does the main riff he does a little pull off...

Intro

|--------|-------0-----0------------|
|--------|---------0----------------|
|----9p8-|--------------------------|   <- Repeat
|--9-----|-9s7s6-----7---4s6s7s9----|
|--------|-----------------------9--|
|--------|--------------------------|

Verse 1 (You can listen to the song and figure out the strumming patteren)

|--9----5----9----7----9----5----9----7----5----|
|--9----5----9----7----9----5----9----7----5----|
|--9----6----9----8----9----6----9----8----5h6--|
|--9----7----9----9----9----7----9----9----7----|
|--7----7----7----9----7----7----7----9----7----|
|--7----5----7----7----7----5----7----7----5----|

|--------0-----0------------|
|----------0----------------|
|---------------------------|
|--9s7s6-----7---4s6s7s9----|
|------------------------9--|
|---------------------------|

|--9----5----9----7----9----5----9----7----5------7--|
|--9----5----9----7----9----5----9----7----5------7--|
|--9----6----9----8----9----6----9----8----5h6----8--|
|--9----7----9----9----9----7----9----9----7------9--|
|--7----7----7----9----7----7----7----9----7------9--|
|--7----5----7----7----7----5----7----7----5------7--|

Chorus

|--9----7----5----7----9----7----5----9----5----9----5--|
|--9----7----5----7----9----7----5----9----5----9----5--|
|--9----8----6----8----9----8----6----9----6----9----6--|
|--9----9----7----9----9----9----6----9----6----9----6--|
|--7----9----7----9----7----9----7----7----7----7----7--|
|--7----7----5----7----7----7----5----7----5----7----5--|

Riff

|--------0-----0---------------|-----------|
|----------0-------------------|-----------|
|------------------------------|-----------|
|--9s7s6-----7----4s6s7s9------|-----------|
|-------------------------9s11-|--9p7------|
|------------------------------|------9p7--|

Verse 2

|--9----5----9----7----9----5----9----7----5------9--|
|--9----5----9----7----9----5----9----7----5------9--|
|--9----6----9----8----9----6----9----8----5h6----9--|
|--9----7----9----9----9----7----9----9----7------9--|
|--7----7----7----9----7----7----7----9----7------7--|
|--7----5----7----7----7----5----7----7----5------7--|

|--9----5----9----7----9----5----9----7----5------7--|
|--9----5----9----7----9----5----9----7----5------7--|
|--9----6----9----8----9----6----9----8----5h6----8--|
|--9----7----9----9----9----7----9----9----7------9--|
|--7----7----7----9----7----7----7----9----7------9--|
|--7----5----7----7----7----5----7----7----5------7--|

Chorus

|--9----7----5----7----9----7----5----9----5----9----5----7----5--|
|--9----7----5----7----9----7----5----9----5----9----5----7----5--|
|--9----8----6----8----9----8----6----9----6----9----6----6----6--|
|--9----9----7----9----9----9----6----9----6----9----6----8----6--|
|--7----9----7----9----7----9----7----7----7----7----7----8----7--|
|--7----7----5----7----7----7----5----7----5----7----5----7----5--|

Bridge (I guess thats what this is)

|--9----5----9----5----9----7------|
|--9----5----9----5----9----7------|
|--9----6----9----6----9----8------|  <- Repeat
|--9----6----9----6----9----9------|
|--7----7----7----7----7----9------|
|--7----5----7----5----7----7------|

Riff

|----------0------------|
|----0---0--------------|
|-----------------------|
|--9---9-----4s6s7s9----|
|--------------------9--|
|-----------------------|

Chorus

|--9----7----5----7----9----7----5----9----5----9----5----|
|--9----7----5----7----9----7----5----9----5----9----5----|
|--9----8----6----8----9----8----6----9----6----9----6----|
|--9----9----7----9----9----9----6----9----6----9----6----|
|--7----9----7----9----7----9----7----7----7----7----7----|
|--7----7----5----7----7----7----5----7----5----7----5----|

Riff

|--------0-------0---------------|
|--------------0-----------------|
|--------------------------------|  <- Repeat till the end
|--9s7s6---6s7------4s6s7s9------|
|---------------------------9s11-|
|--------------------------------|

You can also add the chords from the chorus with another guitar... also you can make an
useing this scale

|--------------------------9-12--|
|---------------------9-12-------|
|----------------9-11------------|
|-----------9-11-----------------|
|------9-11----------------------|
|-9-12---------------------------|

I think it's called the pentatonic scale I don't really remember... But just improvise
it...


There you go... I hope it's right in some way... Any quesions about the tab email 
me at DoubleS.0312@yahoo.com

Don't forget to comment Please!!!
Tap to rate this tab
 
# A B C D E F G H I J K L M N O P Q R S T U V W X Y Z