Song name
# A B C D E F G H I J K L M N O P Q R S T U V W X Y Z

Kenny Chesney - Never Wanted Nothing More Acoustic tab

This is the acoustic solo after the first chorus.  It isn't exactly how the song
is, but this is how I play it.

-----------------------------------------3p0-----------------------------------|
----------3-3h5p3-------------------3--------3p0-3p0---------------------------|
----0-2/4---------2p0---------0-2/4---2--------------2p0-0h2-0-------------0---|
-0h2------------------2p0-0h2----------------------------------2p0-----0h2-----|
-------------------------------------------------------------------2p0---------|
-------------------------------------------------------------------------------|

------------3------------------------------------------------------------------|
------------3------------------------------------------------------------------|
------------0------------------------------------------------------------------|
-2p0--------0------------------------------------------------------------------|
------2p0---2------------------------------------------------------------------|
---------3--3------------------------------------------------------------------|
Tap to rate this tab
 
# A B C D E F G H I J K L M N O P Q R S T U V W X Y Z