Song name
# A B C D E F G H I J K L M N O P Q R S T U V W X Y Z

Kenny Chesney - Im Alive tab

Im Alive-Kenny Chesney/Dave Matthews

Capo 8th fret



VERSES
E-------------------------------------------------------------------------|
B-3---3---4----4---5---5--4---4-----3---3---4----4---5---5---4------------|
G--0-------0--0-----0------0---------0-------0--0-----0------0------------|
D----0----------------0------0---------0----------------0-----------------|
A---2-------2--------3------3---------2-------2--------3-----3------------|
E-------------------------------------------------------------------------|



CHORUSES
E--0---0---0---0---0---0------------0---0--0-----0---0--------------------|
B---0-------0-------0------3---3-----0------0-----0------3---3------------|
G-----0-------0-------0-----3----------0------0-----0-----3---------------|
D----2-------1-------0--------3-------2------1-----0--------3-------------|
A----------------------------0-----------------------------0--------------|
E-------------------------------------------------------------------------|


FIRST HALF OF INTERLUDE IS SAME AS CHORUS


FILL DURING SECOND HALF OF INTERLUDE
E------------------------------------------------------------------------|
B------------------------------------------------------------------------|
G------------------------------------------------------------------------|
D--0--00---1--11--777--5-55--777--4-44---222--222---0--------------------|
A------------------------------------------------------------------------|
E------------------------------------------------------------------------|



OUTRO FILL
E------------------------------------------------------------------------|
B------------------------------------------------------------------------|
G------------------------------------------------------------------------|
D----57-7S--97P-5-7-7S-9--5--------------------------------------------|
A--5---------------------------------------------------------------------|
E------------------------------------------------------------------------|
Tap to rate this tab
# A B C D E F G H I J K L M N O P Q R S T U V W X Y Z