Song name
# A B C D E F G H I J K L M N O P Q R S T U V W X Y Z

Kenny Chesney - Im Alive tab

Tune down Ĺ step

INTRO-2X (Same pattern for all the verses)
  E       E+      A       Am          E       E+      A       Am              
E------------------------------------------------------------------------|
B-0---0---1---1---2---2---1---1-------0---0---1---1---2---2---1----------|
G--1-------1-------2-------2-----------1-------1-------2------2----------|
D---2-------2--------2-------2-----------2-------2--------2---2----------|
A-------------------0-------0---------------------------3-----0----------|
E----0-------0--------------------------0-------0------------------------|

VERSE1
So damn easy to say that life's so hard
Everybody's got their share of battle scars
As for me I'd like to thank my lucky stars that
I'm alive and well

VERSE2
It'd be easy to add up all the pain
And all the dreams you've sat and watched go up in flames
Dwell on the wreckage as it smolders in the rain
But not me... I'm alive

CHORUS PATTERN (3X)
    Dbm	          C               Cb           F#
E----------------------------------------------------------|
B--5-------5------5--------5------4-------4----2-------4---|
G----6--------------5---------------4------------3---------|
D--------6---------------5--------------4------------4-----|
A------5---------------3--------------2------------4-------|
E----------------------------------------------------------|

CHORUS
And today you know that's good enough for me
Breathing in and out's a blessing canít you see
Today's the first day of the rest of my life


VERSE PATTERN HERE
And I'm alive and well
I'm alive and well

INTERLUDE (This pattern 2X) play as bar chords
    Dbm	    C       Cb       F#
E----------------------------------------------------------|
B--5---5----5---5---4----4----2----2-----------------------|
G---6--------5-------4---------3---------------------------|
D-----6-------5---------4--------4-------------------------|
A----5---------3-------2--------4--------------------------|
E----------------------------------------------------------|

THIS PATTERN ONCE
   Cb      Cdim      Dbsus4     Dbm     Dbsus4   Cb       A      A     A       A
E------------------------------------------------------------------------------------|
B--4---4----3---3----7----7-----5---5----7---7----4---4---2---2--2---2-2---2---2-----|
G---4--------5--------6----------6--------6--------4-------2------2-----2------2-----|
D-----4--------4--------6----------6--------6--------4-------2------2-----2----------|
A----2--------3--------5----------5--------5--------2-------0------0-----0-----0-----|
E------------------------------------------------------------------------------------|



VERSE3
Stars are dancin' on the water here tonight
It's good for the soul when there's not a soul in sight
This boat has caught its wind and brought me back to life
Now I'm alive and well

CHORUS
And today you know that's good enough for me
Breathing in and out's a blessing can't you see
Today's the first day of the rest of my life

E---------------------------------------------------------|
B-0-------0---1-------1------2-------2-----1------1-------|
G---1-----------1--------------2-------------2------------|
D-------2-----------2--------------2-------------2--------|
A-------------------------3------0-------------0----------|
E-----0-----------0---------------------------------------|

Now I'm alive and well
  E           E+             A             Am         E
E-----------------------------------------------------0----|
B-0-------0---1-------1------2-------2-----1------1---0----|
G---1-----------1--------------2-------------2--------1----|
D-------2-----------2--------------2-------------2----2----|
A-------------------------3------0-------------0------2----|
E-----0-----------0-----------------------------------0----|

Yeah I'm alive and well

OUTRO
  E           E+             A             Am         E (strum)
E----------------------------------------------------------0----|
B-0-------0---1-------1------2-------2-----1------1-------0-----|
G---1-----------1--------------2-------------2-----------1------|
D-------2-----------2--------------2-------------2------2-------|
A-------------------------3------0-------------0-------2--------|
E-----0-----------0-----------------------------------0---------|

Tap to rate this tab
# A B C D E F G H I J K L M N O P Q R S T U V W X Y Z