Song name
# A B C D E F G H I J K L M N O P Q R S T U V W X Y Z

Kenny Chesney - There Goes My Life tab

Intro

E--0------0-------------|
B---0------0------0-----|
G----2--1---1/2--2------|
D-------------------4---|
A-----------------------|
E-----------------------|  x2

Verse

E---------------------|
B-----0--0----0--0----|
G----1----2--1--------|
D---2-------2-----4---|  x2
A--2-------2----------|
E---------------------|

Verse Still

E----------|
B-----0----|
G----2-2---|
D---2------|
A--0-------|
E----------|

Repeat Intro

This is the whole song. I will submit another tab with the chords that go along with 
version of the song. The chords start only after you play the intro for the second time.
Tap to rate this tab
# A B C D E F G H I J K L M N O P Q R S T U V W X Y Z