Song name
# A B C D E F G H I J K L M N O P Q R S T U V W X Y Z

Kenny Chesney - Anything But Mine tab

Tabbed by:abbott764
Email:abbott764@gmail.com

Tuning:Standard

intro
e|--5h7-7-7-7-5-4-5-0--0h2-5-7-7-7-7-5-4-5-0---------0---------|
B|--5-5-5-5-5-5-5-5-0--0---5-5-5-5-5-5-5-5-0------5--0---------|
G|--------------------------------------------4h6--------------|
D|-------------------------------------------------------------|
A|-------------------------------------------------------------|
E|-------------------------------------------------------------|

Walkin'....that    Miracle..and   Mary...the    Night.....you can

      E            A              E             A
e|-----0------0-------0------0-------0------0-------0------0--------------|
B|----0--0---0--0----2--2---2--2----0--0---0--0----2--2---2--2------------|
G|---1-----1--------2-----2--------1-----1--------2-----2-----------------|
D|------------------------------------------------------------------------|
A|----------------0-----------------------------0-------------------------|
E|-0-----------------------------0----------------------------------------|

   hear......the   pin...slides  watchin'..of   sight.....there's a
      E            A              E             A
e|-----0------0-------0------0-------0------0-------0------0---|
B|----0--0---0--0----2--2---2--2----0--0---0--0----2--2---2--2-|
G|---1-----1--------2-----2--------1-----1--------2-----2------|
D|-------------------------------------------------------------|
A|-----------------0-----------------------------0-------------|
E|--0-----------------------------0----------------------------|

  warm......in   from...it's  way...the    street...   Mary.....her
  B              A             E            A          E
e|-------------------------------0-----0------------0------0-----0---|
B|----4-----4-------2-----2-----0--0-----0----2-------2---0--0-----0-|
G|---4--4-----4----2--2-----2--1-----1-------2--2--------1-----1-----|
D|--4-----4-------2-----2-------------------2-----2------------------|
A|-2-------------0-------------------------0-------------------------|
E|----------------------------0------------------------0-------------|
  shoes       likes  sand   feet
   A          E      B      E (up-strum final E chord/start on high string)
e|--------------------------0-|
B|----2-----2-----------4---0-|
G|---2--2---2----1-----4--4-1-|
D|--2-----2-2---2--2--4-----2-|
A|-0-----------2-----2------2-|
E|------------0-------------0-|

Chorus
           E                          A                           E
And in the mornin' I'm leavin' makin' my way back to Cleveland so tonight I
                    A          E                         A       E   B
hope I will do just fine.  And I don't see how you could ever be, anything
    E
but mine

e|-5h7-7-7-7-5-4-5-0-|
B|-5-5-5-5-5-5-5-5-0-|
G|-------------------|
D|-------------------|
A|-------------------|
E|-------------------|

         E                          A                            E
There's a local band playin' at the sea side pavilion, and I got just enough
                A
cash to get us in

e|--------------|
B|-pb7r-5-7---5-|
G|----------6---|
D|--------------|
A|--------------|
E|--------------|
    E                        A                                     E
And as we are dancin' Mary's wrappin' her arms around me and I can feel the
                      A
steam of summer on my skin.

e|-----12----------------------------|
B|-13b----14-12-------14-12----------|
G|--------------13-12b-----pb12-9/11-|let ring
D|-----------------------------------|
A|-----------------------------------|
E|-----------------------------------|
       B                    A                               E
In the mist of the music, I tell 'er I love her and we both laugh cause we
              A
know it isn't true

e|----------------|
B|----------------|
G|----------------|
D|--pb4r-2-4------|
A|-----------5/7--|
E|----------------|
       E                             A                                E
Ah but Mary there's a summer drawin' to an end tonight and there's so much
       B             E
that I long to do to you

                        (but in the mornin')
                                E
e|------------------------------|
B|------------------------------|
G|------4-6-4-------------------|
D|--5h6-------6-pb4r-2----------|
A|---------------------4--------|
E|-----------------------pb2r-0-|
                   A                           E
I'm leavin' makin' my way back to Cleveland so tonight I
                    A          E                         A       E   B
hope I will do just fine.  And I don't see how you could ever be, anything
    E
but mine


Solo
e|--------12------------------------------------|
B|--13/14----14-12-------------14-12------------|
G|-----------------14-13-11/13-------pb11r9\\---|
D|----------------------------------------------|
A|----------------------------------------------|
E|----------------------------------------------|

e|------------------------------------------12-------12-12----12-12---------|
B|-----------9-12/14-12-----------------9/12-------12-------12--------------|
G|------9-11------------13-11-9-b11r11--------------------------------------|
D|-9-11---------------------------------------------------------------------|
A|--------------------------------------------------------------------------|
E|--------------------------------------------------------------------------|
                                                                     ring
e|----12-12----12-------12-14-16-17-19-16-12-16-19-16-12-14-19-16/14-12-|
B|-12-------12----12h14-------------------------------------------------|
G|----------------------------------------------------------------------|
D|----------------------------------------------------------------------|
A|----------------------------------------------------------------------|
E|----------------------------------------------------------------------|

And in the mornin' I'm leavin' making my way back to Cleveland so tonight I

hope I would do just fine e|-------------------|
                          B|-------------------|
                          G|-6-4---------------|
                          D|-----pb4r-2---2-h4-|
                          A|------------4------|
                          E|-------------------|
   E                         A        E   B        E
And I don't see how you could ever be, anything but mine
    E                         A        E   B        E
Mary I don't see how you could ever be, anything but mine

end solo
e|--------------------------------------------------------------12-|
B|---------------------------------9-12/14-12-9--------------12----|
G|-pb11pb11r9----9h11---------9-11--------------11-9-11br-13-------|
D|------------11------11-9-11--------------------------------------|
A|-----------------------------------------------------------------|
E|-----------------------------------------------------------------|

e|-----12----------------------------------------------------|
B|------------------------------------9-12----------12-------|
G|-pb11---pb11-9----9h11---------9-11------13----11---pb11r9-|
D|---------------11------11-9-11--------------14-------------|
A|-----------------------------------------------------------|
E|-----------------------------------------------------------|

e|----------------12-14-16-19-16/14-12--------9-12------12-----12-----12|
B|-----------9-12----------------------14--12------9-12----9-12---9-12--|
G|------9-11------------------------------------------------------------|
D|-9-11-----------------------------------------------------------------|
A|----------------------------------------------------------------------|
E|----------------------------------------------------------------------|
                   slower now                  up-strum last E chord

e|------------------------------0---0-0--0-----0---------------------|
B|-------------------9----9-9---2---2-2--0--4--0---------------------|
G|-13/11-9-11br\----9-9---9-9---2---2-2--1--4--1---------------------|
D|-----------------9------9-9---2---2-2--2--4--2---------------------|
A|------------------------------0---0-0--2--2--2---------------------|
E|---------------------------------------0-----0---------------------|

************************************

| /   slide up
| \   slide down
| h   hammer-on
| p   pull-off
| ~   vibrato
| +   harmonic
| x   Mute note
| b   Bend
| pb  Pre-bend
| br  Bend release
| pbr Pre-bend release
| brb Bend release bend

************************************
Tap to rate this tab
 
# A B C D E F G H I J K L M N O P Q R S T U V W X Y Z