Song name
# A B C D E F G H I J K L M N O P Q R S T U V W X Y Z

Kenny Chesney - Nowhere To Go Nowhere To Be tab

song: Nowhere to Go, Nowhere to Be
artist: Kenny Chesney


key: /=slide down
         \=slide up
         p=pull off
         h=hammer on

e|-------5--------------5--------------5--------------|
B|---------7-5--8p-6-h8---7-5--8p-6-h8---7-5-8p-6-h8--|
G|------------7--------------7--------------7---------|
D|----------------------------------------------------|
A|----------------------------------------------------|
E|----------------------------------------------------|

e|--5--------------------5--------------------5----|
B|----7-5------------5-7----7-5-----------5-7------|
G|-------7\-4-4/-6-7-----------7\-4-4/-6-7---------|
D|-------------------------------------------------|
A|-------------------------------------------------|
E|-------------------------------------------------|
Tap to rate this tab
 
# A B C D E F G H I J K L M N O P Q R S T U V W X Y Z