Kenny Chesney - Me And You tab

SONG: Me and you
Arthist: Kenny Chesney


Tabbed by:totim
Email:totziemoron@yahoo.com

Tuning:

intro
e|-----7------10---------7------------------------------|
B|---8---8-10----8---8-7---5--------8--7--8-------------|
G|-0---------------0---------7--5-7-5-------------------|
D|------------------------------------------------------|
A|------------------------------------------------------|
E|------------------------------------------------------|

lead
e|----------10-------7-------------------------------------------10-10/12-------------|
B|-12\8--10----8-7br---5---3/5\3------3h5p3--------------12\--8-8---------------------|
G|-------------------------------3-5-------5-3h5p3---3--------------------12----------|
D|-------------------------------------------------5----------------------------------|
A|------------------------------------------------------------------------------------|
E|------------------------------------------------------------------------------------|

e|-7---7--5-5-3-3---7-7--------------------------------------------------|
B|---8--------------8-8--------------------------------------------------|
G|----------------------9\7----------------------------------------------|
D|--------------------------9-7-9----------------------------------------|
A|-----------------------------------------------------------------------|
E|-----------------------------------------------------------------------|


************************************

| /   slide up
| \   slide down
| h   hammer-on
| p   pull-off

************************************
Tap to rate this tab
 
# A B C D E F G H I J K L M N O P Q R S T U V W X Y Z