Song name
# A B C D E F G H I J K L M N O P Q R S T U V W X Y Z

Kenny Chesney - Some Where With You tab

-------------------------------------------------------------------------------
			     Some where with you - kenny chesney
-------------------------------------------------------------------------------
Tabbed by:jack s.
Email:none
    These are bascialy the only three chords they are repeated,
    just listen to the song for the strum pattern and order.
    This is the basic order so this should be easy.
Tuning:standerd

e|-----0----|-----0----|-----0----|------0-----|-----------------------------|
B|-----0----|-----0----|-----0----|------0-----|-----------------------------|
G|-----6----|-----4----|-----2----|------6-----|----repeat-------------------|
D|-----6----|-----4----|-----2----|------6-----|-----------------------------|
A|-----4----|-----2----|-----0----|------4-----|-----------------------------|
E|-----x----|-----x----|-----x----|------x-----|-----------------------------|


************************************

| /   slide up
| \   slide down
| h   hammer-on
| p   pull-off
| ~   vibrato
| +   harmonic
| x   Mute note
| b   Bend
| pb  Pre-bend
| br  Bend release
| pbr Pre-bend release
| brb Bend release bend

************************************
Tap to rate this tab
# A B C D E F G H I J K L M N O P Q R S T U V W X Y Z