Song name
# A B C D E F G H I J K L M N O P Q R S T U V W X Y Z

Kenny Chesney - Somewhere With You tab

Kenny Chesney
Somewhere With You
Hemingway's Whiskey (2010)
Tabbed by: thefletch13

Guitar 1: Clean/Distorted Electric  Standard tuning
Guitar 2: Acoustic  Standard tuning, Capo 4

The full part for the rhythm guitar can be found here:
http://tabs.ultimate-guitar.com/k/kenny_chesney/somewhere_with_you_crd.htm

This tab will use some of those chords to help organize the song.


Intro
e|------------7-------------------------9--7~------9--7~--------------------|
B|---9---9------9---9--[x6]----9---9----------------------------------------|
G|-6---6---66-----6----------6---6---66---------66--------------------------|
D|--------------------------------------------------------------------------|
A|--------------------------------------------------------------------------|
E|--------------------------------------------------------------------------|


Verse 1
e|------------7-------------------------9-7---7-----------------------------|
B|---9---9------9---9--[x4]----9---9--------9-------------------------------|
G|-6---6---66-----6----------6---6---66-------------------------------------|
D|--------------------------------------------------------------------------|
A|--------------------------------------------------------------------------|
E|--------------------------------------------------------------------------|

e|------------7-------------------------9--7~-------------------------------|
B|---9---9------9---9--[x2]----9---9----------------------------------------|
G|-6---6---66-----6----------6---6---66-------------------------------------|
D|--------------------------------------------------------------------------|
A|--------------------------------------------------------------------------|
E|--------------------------------------------------------------------------|


Pre-Chorus 1
e|------------7-------------------------9--7~--------------7----------------|
B|---9---9------9---9--[x6]----9---9--------------9---9------9---9----------|
G|-6---6---66-----6----------6---6---66---------6---6---66-----6------------|
D|--------------------------------------------------------------------------|
A|--------------------------------------------------------------------------|
E|--------------------------------------------------------------------------|


Interlude
e|------------7-------------------------9-7---7~~---------------------------|
B|---9---9------9---9--[x2]----9---9--------9-------------------------------|
G|-6---6---66-----6----------6---6---66-------------------------------------|
D|--------------------------------------------------------------------------|
A|--------------------------------------------------------------------------|
E|--------------------------------------------------------------------------|


Verse 2
e|------------7-------------------------9--7~------------9--7~--------------|
B|---9---9------9---9--[x5]----9---9-----------[x2]-------------------------|
G|-6---6---66-----6----------6---6---66---------------66--------------------|
D|--------------------------------------------------------------------------|
A|--------------------------------------------------------------------------|
E|--------------------------------------------------------------------------|


Pre-chorus 2
e|------------7--------------------9--7-------------------------------------|
B|---9---9------9---9--[x6]----9--------9---9--[x2]-------------------------|
G|-6---6---66-----6----------6---6--------6---------------------------------|
D|--------------------------------------------------------------------------|
A|--------------------------------------------------------------------------|
E|--------------------------------------------------------------------------|


Chorus
   Am                               G
e|--------------------------------------------------------------------------|
B|--------------------------------------------------------------------------|
G|-6-6-6-6-6-6-6-6-6-6-6-8-8-8-9-9--8-8-8-8-8-8-8-8-8-8-8-9-9-9-11-11-------|
D|-x-x-x-x-x-x-x-x-x-x-x-x-x-x-x-x--x-x-x-x-x-x-x-x-x-x-x-x-x-x-x--x--------|
A|-4-4-4-4-4-4-4-4-4-4-4-6-6-6-7-7--6-6-6-6-6-6-6-6-6-6-6-7-7-7-9--9--------|
E|--------------------------------------------------------------------------|

   F                                G
e|--------------------------------------------------------------------------|
B|--------------------------------------------------------------------------|
G|-9-9-9-9-9-9-9-9-6-6-6-8-8-8-9-9--8-8-8-8-8-8-8-8-4-4-4-4-4-4-4-4---------|
D|-x-x-x-x-x-x-x-x-x-x-x-x-x-x-x-x--x-x-x-x-x-x-x-x-x-x-x-x-x-x-x-x---------|
A|-7-7-7-7-7-7-7-7-4-4-4-6-6-6-7-7--6-6-6-6-6-6-6-6-2-2-2-2-2-2-2-2---------|
E|--------------------------------------------------------------------------|

   Am                               G
e|--------------------------------------------------------------------------|
B|--------------------------------------------------------------------------|
G|-6-6-6-6-6-6-6-6-6-6-6-8-8-8-9-9--8-8-8-8-8-8-8-8-4~~---------------------|
D|-x-x-x-x-x-x-x-x-x-x-x-x-x-x-x-x--x-x-x-x-x-x-x-x-x-----------------------|
A|-4-4-4-4-4-4-4-4-4-4-4-6-6-6-7-7--6-6-6-6-6-6-6-6-2~~---------------------|
E|--------------------------------------------------------------------------|


Verse 3
e|------------7-------------------------9--7~------9--7~--------------------|
B|---9---9------9---9--[x6]----9---9----------------------------------------|
G|-6---6---66-----6----------6---6---66---------66--------------------------|
D|--------------------------------------------------------------------------|
A|--------------------------------------------------------------------------|
E|--------------------------------------------------------------------------|


Pre-Chorus 3
e|------------7-------------------------9--7~--------------7----------------|
B|---9---9------9---9--[x6]----9---9--------------9---9------9---9----------|
G|-6---6---66-----6----------6---6---66---------6---6---66-----6------------|
D|--------------------------------------------------------------------------|
A|--------------------------------------------------------------------------|
E|--------------------------------------------------------------------------|


Chorus
   Am                               G
e|--------------------------------------------------------------------------|
B|--------------------------------------------------------------------------|
G|-6-6-6-6-6-6-6-6-6-6-6-8-8-8-9-9--8-8-8-8-8-8-8-8-8-8-8-9-9-9-11-11-------|
D|-x-x-x-x-x-x-x-x-x-x-x-x-x-x-x-x--x-x-x-x-x-x-x-x-x-x-x-x-x-x-x--x--------|
A|-4-4-4-4-4-4-4-4-4-4-4-6-6-6-7-7--6-6-6-6-6-6-6-6-6-6-6-7-7-7-9--9--------|
E|--------------------------------------------------------------------------|

   F                                G
e|--------------------------------------------------------------------------|
B|--------------------------------------------------------------------------|
G|-9-9-9-9-9-9-9-9-6-6-6-8-8-8-9-9--8-8-8-8-8-8-8-8-4-4-4-4-4-4-4-4---------|
D|-x-x-x-x-x-x-x-x-x-x-x-x-x-x-x-x--x-x-x-x-x-x-x-x-x-x-x-x-x-x-x-x---------|
A|-7-7-7-7-7-7-7-7-4-4-4-6-6-6-7-7--6-6-6-6-6-6-6-6-2-2-2-2-2-2-2-2---------|
E|--------------------------------------------------------------------------|

   Am                               G
e|--------------------------------------------------------------------------|
B|--------------------------------------------------------------------------|
G|-6-6-6-6-6-6-6-6-6-6-6-8-8-8-9-9--8-8-8-8-8-8-8-8-8-8-8-9-9-9-11-11-------|
D|-x-x-x-x-x-x-x-x-x-x-x-x-x-x-x-x--x-x-x-x-x-x-x-x-x-x-x-x-x-x-x--x--------|
A|-4-4-4-4-4-4-4-4-4-4-4-6-6-6-7-7--6-6-6-6-6-6-6-6-6-6-6-7-7-7-9--9--------|
E|--------------------------------------------------------------------------|

   F                                G
e|--------------------------------------------------------------------------|
B|--------------------------------------------------------------------------|
G|-9-9-9-9-9-9-9-9-6-6-6-8-8-8-9-9--8-8-8-8-8-8-8-8-4~~---------------------|
D|-x-x-x-x-x-x-x-x-x-x-x-x-x-x-x-x--x-x-x-x-x-x-x-x-x-----------------------|
A|-7-7-7-7-7-7-7-7-4-4-4-6-6-6-7-7--6-6-6-6-6-6-6-6-2~~---------------------|
E|--------------------------------------------------------------------------|


Solo  (The main verse riff plays in the background. Add variations as you see fit.)
   Am                               G
e|--------------------------------------------------------------------------|
B|--------------------------------------------------------------------------|
G|--------------------------------------------------------------------------|
D|-9h11-9h11-9h11-9h11brbr----------9h11-9h11-9h11-9h11/14brbr--------------|
A|--------------------------------------------------------------------------|
E|--------------------------------------------------------------------------|

   F                                G
e|--------------------------------------------------------------------------|
B|--------------------------------------------------------------------------|
G|--------------------------------------------------------------------------|
D|-9h11-9h11-9h11-9h11vr------------9h11p9~---------------------------------|
A|--------------------------------------------9h11p9~-----------------------|
E|--------------------------------------------------------------------------|

   Am                               G
e|--------------------------------------------------------------------------|
B|--------------------------------------------------------------------------|
G|--------------------------------------------------------------------------|
D|-9h11-9h11-9h11-9h11brbr----------9h11-9h11-9h11-9h11/14brbr--------------|
A|--------------------------------------------------------------------------|
E|--------------------------------------------------------------------------|

   F                                G
e|--------------------------------------------------------------------------|
B|------------------------------------12---------12/14----------------------|
G|---------------------------------------11-9----------11-9-----------------|
D|-9h11-9h11-9h11-9h11vr------------9---------11------------11-9+-----------|
A|--------------------------------------------------------------------------|
E|--------------------------------------------------------------------------|

   Am                   G
e|----------------------------14-16-14--------------------------------------|
B|-14~~--16b17----------14-17----------17-14-17brbr--14---------------------|
G|--------------------------------------------------------------------------|
D|--------------------------------------------------------------------------|
A|--------------------------------------------------------------------------|
E|--------------------------------------------------------------------------|

   F                                 G
e|------------12------------------------------------------------------------|
B|----14---------12-------12/14------14------12-----------------------------|
G|------13p11--------------------------13p11---11---------------------------|
D|-11---------------14p11------------------------14-11\9--------------------|
A|--------------------------------------------------------------------------|
E|--------------------------------------------------------------------------|

   Am
e|--------------------------------------------------------------------------|
B|---------14------14------14------14---------------------------------------|
G|-----------13p11---13p11---13p11---13p11----------------------------------|
D|--------------------------------------------------------------------------|
A|--------------------------------------------------------------------------|
E|--------------------------------------------------------------------------|

The song fades out as the solo plays. I know I have most of the solo correct, but I'm 
not 100% sure on the last two lines. If you figure out the correct way to play it, you can 
let me know.

But yeah, that's it. Have fun!


************************************

| /   slide up
| \   slide down
| h   hammer-on
| p   pull-off
| ~   vibrato
| +   harmonic
| v   Whammy bar
| x   Mute note
| b   Bend
| pb  Pre-bend
| br  Bend release
| pbr Pre-bend release
| brb Bend release bend

************************************
Tap to rate this tab
# A B C D E F G H I J K L M N O P Q R S T U V W X Y Z