Song name
# A B C D E F G H I J K L M N O P Q R S T U V W X Y Z

Kenny Chesney - Pirate Flag tab

Kenny Chesney
Pirate Flag
Capo 2nd fret.

Intro part 1:
F,C x2
Intro part 2:
e----------------------------------|
B----------------------------------|
G---------------3-3---------5-5-5--| x2
D-5-5----3-3----3-3---------5-5-5--|
A-5-5----3-3----1-1---------3-3-3--|
E-3-3----1-1-----------------------|

Verse: Same as intro part 2

Chorus:
G                     F             C
I spent my whole life running around
G               F                   C
Still let the wind kinda blow me around
G                           F
Well I dropped a note in a bottle
C
Too a Long legged model
G                        F
And traded it in for a whole nother world
C (let ring)
A pirate flag and an island girl

Ontro:
e--------------------------------------|
B--------------------------------------|
G---------------5-5--------------7-----| x2
D-5-5----3-3----5-5----------7---7-----|
A-5-5----3-3----3-3------7h9---9-7-----|
E-3-3----1-1---------------------------|

Verse: Same as intro part 2

Chorus x1

Solo
e---------------------------------------------|
B--8h10-10-10-10s12-12b-r10-12b-r10-----------|
G---------------------------------------------|
D---------------------------------------------|
A---------------------------------------------|
E---------------------------------------------|

Solo
e---------------------------------------------|
B--8h10-10-10-10s12-12b-r10-10----------------|
G---------------------------------------------|
D---------------------------------------------|
A---------------------------------------------|
E---------------------------------------------|

Bridge:
e---------------------------------------------------|
B---------------------------------------------------|
G-----3----------5--------3----------5--------------|
D-----3-x8-------5-x8-----3-x8-------5-x4-----------|let ring
A-----1----------3--------1----------3--------------|
E---------------------------------------------------|

Chorus:x1
Ontro:X1
Intro part 1:X1
                                                                 NicoT17
Tap to rate this tab
# A B C D E F G H I J K L M N O P Q R S T U V W X Y Z