Song name
# A B C D E F G H I J K L M N O P Q R S T U V W X Y Z

Kenny Chesney - You And Tequila tab

-------------------------------------------------------------------------------
                        You and Tequila Solo - Kenny Chesney
-------------------------------------------------------------------------------
This is 100%

Tuning: 1/2 step down

e|---------------------------------------------------------------------------|
B|----------3--3-----3--3h5---------3--3-------------------------------------|
G|--0--2/4--------4------------------------4--0--2--------0-----0------------|
D|--------------------------------------------------0--2-----------2--0------|
A|---------------------------------------------------------------------------|
E|---------------------------------------------------------------------------|

e|---------------------------------------------------------------------------|
B|-------3-------------------------------------------------------------------|
G|--2/4-----4\2p0--------2----0-------------------------------------0--------|
D|-----------------2--0----0-------2p0-------------------0--2--0-------------|
A|--------------------------------------1/2p0-----0--2-----------------------|
E|---------------------------------------------3-----------------------------|

e|----------3--2vvvv---------------------------------------------------------|
B|---------------------------------------------------------------------------|
G|--0--2/4-------------------------------------------------------------------|
D|---------------------------------------------------------------------------|
A|---------------------------------------------------------------------------|
E|---------------------------------------------------------------------------|


************************************

| /   slide up
| \   slide down
| h   hammer-on
| p   pull-off
| ~   vibrato
| +   harmonic
| x   Mute note
| b   Bend
| pb  Pre-bend
| br  Bend release
| pbr Pre-bend release
| brb Bend release bend

************************************
Tap to rate this tab
# A B C D E F G H I J K L M N O P Q R S T U V W X Y Z